ISO-10303-21;
HEADER;
/* Generated by software containing ST-Developer
 * from STEP Tools, Inc. (www.steptools.com) 
 */

FILE_DESCRIPTION(
/* description */ (''),
/* implementation_level */ '2;1');

FILE_NAME(
/* name */ 
'Y:\\ACad-Dateien\\Ostendorf\\KG2000\\Kundenzeichnung\\778320 KG2000UG
 Anschluss an Gussrohr DN_OD 110.stp',
/* time_stamp */ '2017-01-30T11:18:43+01:00',
/* author */ ('user1'),
/* organization */ (''),
/* preprocessor_version */ 'ST-DEVELOPER v16.1',
/* originating_system */ 'Autodesk Inventor 2016',
/* authorisation */ '');

FILE_SCHEMA (('AUTOMOTIVE_DESIGN { 1 0 10303 214 3 1 1 }'));
ENDSEC;

DATA;
#10=MECHANICAL_DESIGN_GEOMETRIC_PRESENTATION_REPRESENTATION('',(#13),#263);
#11=SHAPE_REPRESENTATION_RELATIONSHIP('SRR','None',#272,#12);
#12=ADVANCED_BREP_SHAPE_REPRESENTATION('',(#14),#262);
#13=STYLED_ITEM('',(#281),#14);
#14=MANIFOLD_SOLID_BREP('Volumenk\X\F6rper1',#147);
#15=CONICAL_SURFACE('',#156,60.15,48.6913859864514);
#16=CONICAL_SURFACE('',#160,54.3961524227066,15.);
#17=CONICAL_SURFACE('',#166,56.15,48.6913859864514);
#18=CONICAL_SURFACE('',#170,61.9038475772934,15.);
#19=PLANE('',#152);
#20=PLANE('',#162);
#21=PLANE('',#172);
#22=FACE_BOUND('',#47,.T.);
#23=FACE_BOUND('',#49,.T.);
#24=FACE_BOUND('',#51,.T.);
#25=FACE_BOUND('',#53,.T.);
#26=FACE_BOUND('',#55,.T.);
#27=FACE_BOUND('',#57,.T.);
#28=FACE_BOUND('',#59,.T.);
#29=FACE_BOUND('',#61,.T.);
#30=FACE_BOUND('',#63,.T.);
#31=FACE_BOUND('',#65,.T.);
#32=FACE_BOUND('',#67,.T.);
#33=FACE_BOUND('',#69,.T.);
#34=FACE_OUTER_BOUND('',#46,.T.);
#35=FACE_OUTER_BOUND('',#48,.T.);
#36=FACE_OUTER_BOUND('',#50,.T.);
#37=FACE_OUTER_BOUND('',#52,.T.);
#38=FACE_OUTER_BOUND('',#54,.T.);
#39=FACE_OUTER_BOUND('',#56,.T.);
#40=FACE_OUTER_BOUND('',#58,.T.);
#41=FACE_OUTER_BOUND('',#60,.T.);
#42=FACE_OUTER_BOUND('',#62,.T.);
#43=FACE_OUTER_BOUND('',#64,.T.);
#44=FACE_OUTER_BOUND('',#66,.T.);
#45=FACE_OUTER_BOUND('',#68,.T.);
#46=EDGE_LOOP('',(#106));
#47=EDGE_LOOP('',(#107));
#48=EDGE_LOOP('',(#108));
#49=EDGE_LOOP('',(#109));
#50=EDGE_LOOP('',(#110));
#51=EDGE_LOOP('',(#111));
#52=EDGE_LOOP('',(#112));
#53=EDGE_LOOP('',(#113));
#54=EDGE_LOOP('',(#114));
#55=EDGE_LOOP('',(#115));
#56=EDGE_LOOP('',(#116));
#57=EDGE_LOOP('',(#117));
#58=EDGE_LOOP('',(#118));
#59=EDGE_LOOP('',(#119));
#60=EDGE_LOOP('',(#120));
#61=EDGE_LOOP('',(#121));
#62=EDGE_LOOP('',(#122));
#63=EDGE_LOOP('',(#123));
#64=EDGE_LOOP('',(#124));
#65=EDGE_LOOP('',(#125));
#66=EDGE_LOOP('',(#126));
#67=EDGE_LOOP('',(#127));
#68=EDGE_LOOP('',(#128));
#69=EDGE_LOOP('',(#129));
#70=CIRCLE('',#150,67.1);
#71=CIRCLE('',#151,67.1);
#72=CIRCLE('',#153,65.1);
#73=CIRCLE('',#155,65.1);
#74=CIRCLE('',#157,55.2);
#75=CIRCLE('',#159,55.2);
#76=CIRCLE('',#161,53.5923048454133);
#77=CIRCLE('',#163,51.2);
#78=CIRCLE('',#165,51.2);
#79=CIRCLE('',#167,61.1);
#80=CIRCLE('',#169,61.1);
#81=CIRCLE('',#171,62.7076951545867);
#82=VERTEX_POINT('',#225);
#83=VERTEX_POINT('',#227);
#84=VERTEX_POINT('',#230);
#85=VERTEX_POINT('',#233);
#86=VERTEX_POINT('',#236);
#87=VERTEX_POINT('',#239);
#88=VERTEX_POINT('',#242);
#89=VERTEX_POINT('',#245);
#90=VERTEX_POINT('',#248);
#91=VERTEX_POINT('',#251);
#92=VERTEX_POINT('',#254);
#93=VERTEX_POINT('',#257);
#94=EDGE_CURVE('',#82,#82,#70,.T.);
#95=EDGE_CURVE('',#83,#83,#71,.T.);
#96=EDGE_CURVE('',#84,#84,#72,.T.);
#97=EDGE_CURVE('',#85,#85,#73,.T.);
#98=EDGE_CURVE('',#86,#86,#74,.T.);
#99=EDGE_CURVE('',#87,#87,#75,.T.);
#100=EDGE_CURVE('',#88,#88,#76,.T.);
#101=EDGE_CURVE('',#89,#89,#77,.T.);
#102=EDGE_CURVE('',#90,#90,#78,.T.);
#103=EDGE_CURVE('',#91,#91,#79,.T.);
#104=EDGE_CURVE('',#92,#92,#80,.T.);
#105=EDGE_CURVE('',#93,#93,#81,.T.);
#106=ORIENTED_EDGE('',*,*,#94,.T.);
#107=ORIENTED_EDGE('',*,*,#95,.F.);
#108=ORIENTED_EDGE('',*,*,#95,.T.);
#109=ORIENTED_EDGE('',*,*,#96,.F.);
#110=ORIENTED_EDGE('',*,*,#96,.T.);
#111=ORIENTED_EDGE('',*,*,#97,.F.);
#112=ORIENTED_EDGE('',*,*,#97,.T.);
#113=ORIENTED_EDGE('',*,*,#98,.F.);
#114=ORIENTED_EDGE('',*,*,#98,.T.);
#115=ORIENTED_EDGE('',*,*,#99,.F.);
#116=ORIENTED_EDGE('',*,*,#99,.T.);
#117=ORIENTED_EDGE('',*,*,#100,.F.);
#118=ORIENTED_EDGE('',*,*,#100,.T.);
#119=ORIENTED_EDGE('',*,*,#101,.F.);
#120=ORIENTED_EDGE('',*,*,#101,.T.);
#121=ORIENTED_EDGE('',*,*,#102,.F.);
#122=ORIENTED_EDGE('',*,*,#102,.T.);
#123=ORIENTED_EDGE('',*,*,#103,.F.);
#124=ORIENTED_EDGE('',*,*,#103,.T.);
#125=ORIENTED_EDGE('',*,*,#104,.F.);
#126=ORIENTED_EDGE('',*,*,#104,.T.);
#127=ORIENTED_EDGE('',*,*,#105,.F.);
#128=ORIENTED_EDGE('',*,*,#94,.F.);
#129=ORIENTED_EDGE('',*,*,#105,.T.);
#130=CYLINDRICAL_SURFACE('',#149,67.1);
#131=CYLINDRICAL_SURFACE('',#154,65.1);
#132=CYLINDRICAL_SURFACE('',#158,55.2);
#133=CYLINDRICAL_SURFACE('',#164,51.2);
#134=CYLINDRICAL_SURFACE('',#168,61.1);
#135=ADVANCED_FACE('',(#34,#22),#130,.T.);
#136=ADVANCED_FACE('',(#35,#23),#19,.T.);
#137=ADVANCED_FACE('',(#36,#24),#131,.T.);
#138=ADVANCED_FACE('',(#37,#25),#15,.T.);
#139=ADVANCED_FACE('',(#38,#26),#132,.T.);
#140=ADVANCED_FACE('',(#39,#27),#16,.T.);
#141=ADVANCED_FACE('',(#40,#28),#20,.T.);
#142=ADVANCED_FACE('',(#41,#29),#133,.F.);
#143=ADVANCED_FACE('',(#42,#30),#17,.F.);
#144=ADVANCED_FACE('',(#43,#31),#134,.F.);
#145=ADVANCED_FACE('',(#44,#32),#18,.F.);
#146=ADVANCED_FACE('',(#45,#33),#21,.T.);
#147=CLOSED_SHELL('',(#135,#136,#137,#138,#139,#140,#141,#142,#143,#144,
#145,#146));
#148=AXIS2_PLACEMENT_3D('placement',#223,#173,#174);
#149=AXIS2_PLACEMENT_3D('',#224,#175,#176);
#150=AXIS2_PLACEMENT_3D('',#226,#177,#178);
#151=AXIS2_PLACEMENT_3D('',#228,#179,#180);
#152=AXIS2_PLACEMENT_3D('',#229,#181,#182);
#153=AXIS2_PLACEMENT_3D('',#231,#183,#184);
#154=AXIS2_PLACEMENT_3D('',#232,#185,#186);
#155=AXIS2_PLACEMENT_3D('',#234,#187,#188);
#156=AXIS2_PLACEMENT_3D('',#235,#189,#190);
#157=AXIS2_PLACEMENT_3D('',#237,#191,#192);
#158=AXIS2_PLACEMENT_3D('',#238,#193,#194);
#159=AXIS2_PLACEMENT_3D('',#240,#195,#196);
#160=AXIS2_PLACEMENT_3D('',#241,#197,#198);
#161=AXIS2_PLACEMENT_3D('',#243,#199,#200);
#162=AXIS2_PLACEMENT_3D('',#244,#201,#202);
#163=AXIS2_PLACEMENT_3D('',#246,#203,#204);
#164=AXIS2_PLACEMENT_3D('',#247,#205,#206);
#165=AXIS2_PLACEMENT_3D('',#249,#207,#208);
#166=AXIS2_PLACEMENT_3D('',#250,#209,#210);
#167=AXIS2_PLACEMENT_3D('',#252,#211,#212);
#168=AXIS2_PLACEMENT_3D('',#253,#213,#214);
#169=AXIS2_PLACEMENT_3D('',#255,#215,#216);
#170=AXIS2_PLACEMENT_3D('',#256,#217,#218);
#171=AXIS2_PLACEMENT_3D('',#258,#219,#220);
#172=AXIS2_PLACEMENT_3D('',#259,#221,#222);
#173=DIRECTION('axis',(0.,0.,1.));
#174=DIRECTION('refdir',(1.,0.,0.));
#175=DIRECTION('center_axis',(0.,-1.,0.));
#176=DIRECTION('ref_axis',(1.,0.,0.));
#177=DIRECTION('center_axis',(0.,-1.,0.));
#178=DIRECTION('ref_axis',(1.,0.,0.));
#179=DIRECTION('center_axis',(0.,-1.,0.));
#180=DIRECTION('ref_axis',(1.,0.,0.));
#181=DIRECTION('center_axis',(0.,-1.,0.));
#182=DIRECTION('ref_axis',(0.,0.,-1.));
#183=DIRECTION('center_axis',(0.,-1.,0.));
#184=DIRECTION('ref_axis',(1.,0.,0.));
#185=DIRECTION('center_axis',(0.,-1.,0.));
#186=DIRECTION('ref_axis',(1.,0.,0.));
#187=DIRECTION('center_axis',(0.,-1.,0.));
#188=DIRECTION('ref_axis',(1.,0.,0.));
#189=DIRECTION('center_axis',(0.,1.,0.));
#190=DIRECTION('ref_axis',(1.,0.,0.));
#191=DIRECTION('center_axis',(0.,-1.,0.));
#192=DIRECTION('ref_axis',(1.,0.,0.));
#193=DIRECTION('center_axis',(0.,-1.,0.));
#194=DIRECTION('ref_axis',(1.,0.,0.));
#195=DIRECTION('center_axis',(0.,-1.,0.));
#196=DIRECTION('ref_axis',(1.,0.,0.));
#197=DIRECTION('center_axis',(0.,1.,0.));
#198=DIRECTION('ref_axis',(1.,0.,0.));
#199=DIRECTION('center_axis',(0.,-1.,0.));
#200=DIRECTION('ref_axis',(1.,0.,0.));
#201=DIRECTION('center_axis',(0.,-1.,0.));
#202=DIRECTION('ref_axis',(0.,0.,-1.));
#203=DIRECTION('center_axis',(0.,-1.,0.));
#204=DIRECTION('ref_axis',(1.,0.,0.));
#205=DIRECTION('center_axis',(0.,-1.,0.));
#206=DIRECTION('ref_axis',(1.,0.,0.));
#207=DIRECTION('center_axis',(0.,-1.,0.));
#208=DIRECTION('ref_axis',(1.,0.,0.));
#209=DIRECTION('center_axis',(0.,1.,0.));
#210=DIRECTION('ref_axis',(1.,0.,0.));
#211=DIRECTION('center_axis',(0.,-1.,0.));
#212=DIRECTION('ref_axis',(1.,0.,0.));
#213=DIRECTION('center_axis',(0.,-1.,0.));
#214=DIRECTION('ref_axis',(1.,0.,0.));
#215=DIRECTION('center_axis',(0.,-1.,0.));
#216=DIRECTION('ref_axis',(1.,0.,0.));
#217=DIRECTION('center_axis',(0.,1.,0.));
#218=DIRECTION('ref_axis',(1.,0.,0.));
#219=DIRECTION('center_axis',(0.,-1.,0.));
#220=DIRECTION('ref_axis',(1.,0.,0.));
#221=DIRECTION('center_axis',(0.,1.,0.));
#222=DIRECTION('ref_axis',(0.,0.,1.));
#223=CARTESIAN_POINT('',(0.,0.,0.));
#224=CARTESIAN_POINT('Origin',(0.,149.5,0.));
#225=CARTESIAN_POINT('',(67.1,151.,0.));
#226=CARTESIAN_POINT('Origin',(0.,151.,0.));
#227=CARTESIAN_POINT('',(67.1,148.,0.));
#228=CARTESIAN_POINT('Origin',(0.,148.,0.));
#229=CARTESIAN_POINT('Origin',(65.1,148.,0.));
#230=CARTESIAN_POINT('',(65.1,148.,0.));
#231=CARTESIAN_POINT('Origin',(0.,148.,0.));
#232=CARTESIAN_POINT('Origin',(0.,111.85,0.));
#233=CARTESIAN_POINT('',(65.1,75.7,0.));
#234=CARTESIAN_POINT('Origin',(0.,75.7,0.));
#235=CARTESIAN_POINT('Origin',(0.,71.35,0.));
#236=CARTESIAN_POINT('',(55.2,67.,0.));
#237=CARTESIAN_POINT('Origin',(0.,67.,0.));
#238=CARTESIAN_POINT('Origin',(0.,36.5,0.));
#239=CARTESIAN_POINT('',(55.2,6.,0.));
#240=CARTESIAN_POINT('Origin',(0.,6.,0.));
#241=CARTESIAN_POINT('Origin',(0.,3.00000000000001,0.));
#242=CARTESIAN_POINT('',(53.5923048454133,0.,0.));
#243=CARTESIAN_POINT('Origin',(0.,0.,0.));
#244=CARTESIAN_POINT('Origin',(51.2,0.,0.));
#245=CARTESIAN_POINT('',(51.2,0.,0.));
#246=CARTESIAN_POINT('Origin',(0.,0.,0.));
#247=CARTESIAN_POINT('Origin',(0.,34.4049554710895,0.));
#248=CARTESIAN_POINT('',(51.2,68.8099109421791,0.));
#249=CARTESIAN_POINT('Origin',(0.,68.8099109421791,0.));
#250=CARTESIAN_POINT('Origin',(0.,73.1599109421791,0.));
#251=CARTESIAN_POINT('',(61.1,77.5099109421791,0.));
#252=CARTESIAN_POINT('Origin',(0.,77.5099109421791,0.));
#253=CARTESIAN_POINT('Origin',(0.,111.25495547109,0.));
#254=CARTESIAN_POINT('',(61.1,145.,0.));
#255=CARTESIAN_POINT('Origin',(0.,145.,0.));
#256=CARTESIAN_POINT('Origin',(0.,148.,0.));
#257=CARTESIAN_POINT('',(62.7076951545867,151.,0.));
#258=CARTESIAN_POINT('Origin',(0.,151.,0.));
#259=CARTESIAN_POINT('Origin',(65.1,151.,0.));
#260=UNCERTAINTY_MEASURE_WITH_UNIT(LENGTH_MEASURE(0.01),#264,
'DISTANCE_ACCURACY_VALUE',
'Maximum model space distance between geometric entities at asserted c
onnectivities');
#261=UNCERTAINTY_MEASURE_WITH_UNIT(LENGTH_MEASURE(1.E-6),#264,
'DISTANCE_ACCURACY_VALUE',
'Maximum model space distance between geometric entities at asserted c
onnectivities');
#262=(
GEOMETRIC_REPRESENTATION_CONTEXT(3)
GLOBAL_UNCERTAINTY_ASSIGNED_CONTEXT((#260))
GLOBAL_UNIT_ASSIGNED_CONTEXT((#264,#267,#265))
REPRESENTATION_CONTEXT('','3D')
);
#263=(
GEOMETRIC_REPRESENTATION_CONTEXT(3)
GLOBAL_UNCERTAINTY_ASSIGNED_CONTEXT((#261))
GLOBAL_UNIT_ASSIGNED_CONTEXT((#264,#267,#265))
REPRESENTATION_CONTEXT('','3D')
);
#264=(
LENGTH_UNIT()
NAMED_UNIT(*)
SI_UNIT(.MILLI.,.METRE.)
);
#265=(
NAMED_UNIT(*)
SI_UNIT($,.STERADIAN.)
SOLID_ANGLE_UNIT()
);
#266=DIMENSIONAL_EXPONENTS(0.,0.,0.,0.,0.,0.,0.);
#267=(
CONVERSION_BASED_UNIT('degree',#269)
NAMED_UNIT(#266)
PLANE_ANGLE_UNIT()
);
#268=(
NAMED_UNIT(*)
PLANE_ANGLE_UNIT()
SI_UNIT($,.RADIAN.)
);
#269=PLANE_ANGLE_MEASURE_WITH_UNIT(PLANE_ANGLE_MEASURE(0.01745329252),#268);
#270=SHAPE_DEFINITION_REPRESENTATION(#271,#272);
#271=PRODUCT_DEFINITION_SHAPE('',$,#274);
#272=SHAPE_REPRESENTATION('',(#148),#262);
#273=PRODUCT_DEFINITION_CONTEXT('part definition',#278,'design');
#274=PRODUCT_DEFINITION(
'778320 KG2000UG Anschluss an Gussrohr DN_OD 110',
'778320 KG2000UG Anschluss an Gussrohr DN_OD 110',#275,#273);
#275=PRODUCT_DEFINITION_FORMATION('',$,#280);
#276=PRODUCT_RELATED_PRODUCT_CATEGORY(
'778320 KG2000UG Anschluss an Gussrohr DN_OD 110',
'778320 KG2000UG Anschluss an Gussrohr DN_OD 110',(#280));
#277=APPLICATION_PROTOCOL_DEFINITION('international standard',
'automotive_design',2009,#278);
#278=APPLICATION_CONTEXT(
'Core Data for Automotive Mechanical Design Process');
#279=PRODUCT_CONTEXT('part definition',#278,'mechanical');
#280=PRODUCT('778320 KG2000UG Anschluss an Gussrohr DN_OD 110',
'778320 KG2000UG Anschluss an Gussrohr DN_OD 110',$,(#279));
#281=PRESENTATION_STYLE_ASSIGNMENT((#282));
#282=SURFACE_STYLE_USAGE(.BOTH.,#283);
#283=SURFACE_SIDE_STYLE('',(#284));
#284=SURFACE_STYLE_FILL_AREA(#285);
#285=FILL_AREA_STYLE('',(#286));
#286=FILL_AREA_STYLE_COLOUR('',#287);
#287=COLOUR_RGB('',0.749019607843137,0.749019607843137,0.749019607843137);
ENDSEC;
END-ISO-10303-21;
