ISO-10303-21;
HEADER;
/* Generated by software containing ST-Developer
 * from STEP Tools, Inc. (www.steptools.com) 
 */

FILE_DESCRIPTION(
/* description */ (''),
/* implementation_level */ '2;1');

FILE_NAME(
/* name */ 
'Y:\\ACad-Dateien\\Ostendorf\\HT\\Kundenzeichnung\\Standardzeichnungen
\\Inventorzeichnungen\\559020 HTEM DN_OD 32x500 wei\X\DF.stp',
/* time_stamp */ '2018-01-12T10:57:46+01:00',
/* author */ ('user1'),
/* organization */ (''),
/* preprocessor_version */ 'ST-DEVELOPER v16.1',
/* originating_system */ 'Autodesk Inventor 2016',
/* authorisation */ '');

FILE_SCHEMA (('AUTOMOTIVE_DESIGN { 1 0 10303 214 3 1 1 }'));
ENDSEC;

DATA;
#10=MECHANICAL_DESIGN_GEOMETRIC_PRESENTATION_REPRESENTATION('',(#13),#603);
#11=SHAPE_REPRESENTATION_RELATIONSHIP('SRR','None',#612,#12);
#12=ADVANCED_BREP_SHAPE_REPRESENTATION('',(#14),#602);
#13=STYLED_ITEM('',(#621),#14);
#14=MANIFOLD_SOLID_BREP('Volumenk\X\F6rper2',#334);
#15=TOROIDAL_SURFACE('',#353,17.3,0.800000000000005);
#16=TOROIDAL_SURFACE('',#357,17.9,1.50000000000001);
#17=TOROIDAL_SURFACE('',#361,17.9,1.50000000000001);
#18=TOROIDAL_SURFACE('',#365,18.,1.5);
#19=TOROIDAL_SURFACE('',#369,17.,0.5);
#20=TOROIDAL_SURFACE('',#373,17.8,0.5);
#21=TOROIDAL_SURFACE('',#377,19.3,0.999999999999994);
#22=TOROIDAL_SURFACE('',#381,19.2,1.99999999999999);
#23=TOROIDAL_SURFACE('',#385,19.2,2.);
#24=TOROIDAL_SURFACE('',#389,19.15,0.999999999999996);
#25=CYLINDRICAL_SURFACE('',#341,14.1000000000001);
#26=CYLINDRICAL_SURFACE('',#343,16.1);
#27=CYLINDRICAL_SURFACE('',#347,16.35);
#28=CYLINDRICAL_SURFACE('',#351,16.5);
#29=CYLINDRICAL_SURFACE('',#359,19.4);
#30=CYLINDRICAL_SURFACE('',#367,16.5);
#31=CYLINDRICAL_SURFACE('',#375,18.3);
#32=CYLINDRICAL_SURFACE('',#383,21.2);
#33=CYLINDRICAL_SURFACE('',#391,18.15);
#34=PLANE('',#339);
#35=PLANE('',#349);
#36=PLANE('',#371);
#37=FACE_BOUND('',#96,.T.);
#38=FACE_BOUND('',#98,.T.);
#39=FACE_BOUND('',#100,.T.);
#40=FACE_BOUND('',#102,.T.);
#41=FACE_BOUND('',#104,.T.);
#42=FACE_BOUND('',#106,.T.);
#43=FACE_BOUND('',#108,.T.);
#44=FACE_BOUND('',#110,.T.);
#45=FACE_BOUND('',#112,.T.);
#46=FACE_BOUND('',#114,.T.);
#47=FACE_BOUND('',#116,.T.);
#48=FACE_BOUND('',#118,.T.);
#49=FACE_BOUND('',#120,.T.);
#50=FACE_BOUND('',#122,.T.);
#51=FACE_BOUND('',#124,.T.);
#52=FACE_BOUND('',#126,.T.);
#53=FACE_BOUND('',#128,.T.);
#54=FACE_BOUND('',#130,.T.);
#55=FACE_BOUND('',#132,.T.);
#56=FACE_BOUND('',#134,.T.);
#57=FACE_BOUND('',#136,.T.);
#58=FACE_BOUND('',#138,.T.);
#59=FACE_BOUND('',#140,.T.);
#60=FACE_BOUND('',#142,.T.);
#61=FACE_BOUND('',#144,.T.);
#62=FACE_BOUND('',#146,.T.);
#63=FACE_BOUND('',#148,.T.);
#64=FACE_BOUND('',#150,.T.);
#65=FACE_BOUND('',#152,.T.);
#66=FACE_OUTER_BOUND('',#95,.T.);
#67=FACE_OUTER_BOUND('',#97,.T.);
#68=FACE_OUTER_BOUND('',#99,.T.);
#69=FACE_OUTER_BOUND('',#101,.T.);
#70=FACE_OUTER_BOUND('',#103,.T.);
#71=FACE_OUTER_BOUND('',#105,.T.);
#72=FACE_OUTER_BOUND('',#107,.T.);
#73=FACE_OUTER_BOUND('',#109,.T.);
#74=FACE_OUTER_BOUND('',#111,.T.);
#75=FACE_OUTER_BOUND('',#113,.T.);
#76=FACE_OUTER_BOUND('',#115,.T.);
#77=FACE_OUTER_BOUND('',#117,.T.);
#78=FACE_OUTER_BOUND('',#119,.T.);
#79=FACE_OUTER_BOUND('',#121,.T.);
#80=FACE_OUTER_BOUND('',#123,.T.);
#81=FACE_OUTER_BOUND('',#125,.T.);
#82=FACE_OUTER_BOUND('',#127,.T.);
#83=FACE_OUTER_BOUND('',#129,.T.);
#84=FACE_OUTER_BOUND('',#131,.T.);
#85=FACE_OUTER_BOUND('',#133,.T.);
#86=FACE_OUTER_BOUND('',#135,.T.);
#87=FACE_OUTER_BOUND('',#137,.T.);
#88=FACE_OUTER_BOUND('',#139,.T.);
#89=FACE_OUTER_BOUND('',#141,.T.);
#90=FACE_OUTER_BOUND('',#143,.T.);
#91=FACE_OUTER_BOUND('',#145,.T.);
#92=FACE_OUTER_BOUND('',#147,.T.);
#93=FACE_OUTER_BOUND('',#149,.T.);
#94=FACE_OUTER_BOUND('',#151,.T.);
#95=EDGE_LOOP('',(#240));
#96=EDGE_LOOP('',(#241));
#97=EDGE_LOOP('',(#242));
#98=EDGE_LOOP('',(#243));
#99=EDGE_LOOP('',(#244));
#100=EDGE_LOOP('',(#245));
#101=EDGE_LOOP('',(#246));
#102=EDGE_LOOP('',(#247));
#103=EDGE_LOOP('',(#248));
#104=EDGE_LOOP('',(#249));
#105=EDGE_LOOP('',(#250));
#106=EDGE_LOOP('',(#251));
#107=EDGE_LOOP('',(#252));
#108=EDGE_LOOP('',(#253));
#109=EDGE_LOOP('',(#254));
#110=EDGE_LOOP('',(#255));
#111=EDGE_LOOP('',(#256));
#112=EDGE_LOOP('',(#257));
#113=EDGE_LOOP('',(#258));
#114=EDGE_LOOP('',(#259));
#115=EDGE_LOOP('',(#260));
#116=EDGE_LOOP('',(#261));
#117=EDGE_LOOP('',(#262));
#118=EDGE_LOOP('',(#263));
#119=EDGE_LOOP('',(#264));
#120=EDGE_LOOP('',(#265));
#121=EDGE_LOOP('',(#266));
#122=EDGE_LOOP('',(#267));
#123=EDGE_LOOP('',(#268));
#124=EDGE_LOOP('',(#269));
#125=EDGE_LOOP('',(#270));
#126=EDGE_LOOP('',(#271));
#127=EDGE_LOOP('',(#272));
#128=EDGE_LOOP('',(#273));
#129=EDGE_LOOP('',(#274));
#130=EDGE_LOOP('',(#275));
#131=EDGE_LOOP('',(#276));
#132=EDGE_LOOP('',(#277));
#133=EDGE_LOOP('',(#278));
#134=EDGE_LOOP('',(#279));
#135=EDGE_LOOP('',(#280));
#136=EDGE_LOOP('',(#281));
#137=EDGE_LOOP('',(#282));
#138=EDGE_LOOP('',(#283));
#139=EDGE_LOOP('',(#284));
#140=EDGE_LOOP('',(#285));
#141=EDGE_LOOP('',(#286));
#142=EDGE_LOOP('',(#287));
#143=EDGE_LOOP('',(#288));
#144=EDGE_LOOP('',(#289));
#145=EDGE_LOOP('',(#290));
#146=EDGE_LOOP('',(#291));
#147=EDGE_LOOP('',(#292));
#148=EDGE_LOOP('',(#293));
#149=EDGE_LOOP('',(#294));
#150=EDGE_LOOP('',(#295));
#151=EDGE_LOOP('',(#296));
#152=EDGE_LOOP('',(#297));
#153=CIRCLE('',#337,16.1);
#154=CIRCLE('',#338,15.1621778264911);
#155=CIRCLE('',#340,14.1000000000001);
#156=CIRCLE('',#342,14.1);
#157=CIRCLE('',#344,16.1);
#158=CIRCLE('',#346,16.35);
#159=CIRCLE('',#348,16.35);
#160=CIRCLE('',#350,16.5);
#161=CIRCLE('',#352,16.5);
#162=CIRCLE('',#354,17.2302754058019);
#163=CIRCLE('',#356,18.0307336141215);
#164=CIRCLE('',#358,19.4);
#165=CIRCLE('',#360,19.4);
#166=CIRCLE('',#362,18.0828040151077);
#167=CIRCLE('',#364,17.8171959848923);
#168=CIRCLE('',#366,16.5);
#169=CIRCLE('',#368,16.5);
#170=CIRCLE('',#370,17.);
#171=CIRCLE('',#372,17.8);
#172=CIRCLE('',#374,18.3);
#173=CIRCLE('',#376,18.3);
#174=CIRCLE('',#378,19.1781306565949);
#175=CIRCLE('',#380,19.4437386868103);
#176=CIRCLE('',#382,21.2);
#177=CIRCLE('',#384,21.2);
#178=CIRCLE('',#386,19.3743114854953);
#179=CIRCLE('',#388,19.0628442572523);
#180=CIRCLE('',#390,18.15);
#181=CIRCLE('',#392,18.15);
#182=VERTEX_POINT('',#514);
#183=VERTEX_POINT('',#516);
#184=VERTEX_POINT('',#519);
#185=VERTEX_POINT('',#522);
#186=VERTEX_POINT('',#525);
#187=VERTEX_POINT('',#528);
#188=VERTEX_POINT('',#531);
#189=VERTEX_POINT('',#534);
#190=VERTEX_POINT('',#537);
#191=VERTEX_POINT('',#540);
#192=VERTEX_POINT('',#543);
#193=VERTEX_POINT('',#546);
#194=VERTEX_POINT('',#549);
#195=VERTEX_POINT('',#552);
#196=VERTEX_POINT('',#555);
#197=VERTEX_POINT('',#558);
#198=VERTEX_POINT('',#561);
#199=VERTEX_POINT('',#564);
#200=VERTEX_POINT('',#567);
#201=VERTEX_POINT('',#570);
#202=VERTEX_POINT('',#573);
#203=VERTEX_POINT('',#576);
#204=VERTEX_POINT('',#579);
#205=VERTEX_POINT('',#582);
#206=VERTEX_POINT('',#585);
#207=VERTEX_POINT('',#588);
#208=VERTEX_POINT('',#591);
#209=VERTEX_POINT('',#594);
#210=VERTEX_POINT('',#597);
#211=EDGE_CURVE('',#182,#182,#153,.T.);
#212=EDGE_CURVE('',#183,#183,#154,.T.);
#213=EDGE_CURVE('',#184,#184,#155,.T.);
#214=EDGE_CURVE('',#185,#185,#156,.T.);
#215=EDGE_CURVE('',#186,#186,#157,.T.);
#216=EDGE_CURVE('',#187,#187,#158,.T.);
#217=EDGE_CURVE('',#188,#188,#159,.T.);
#218=EDGE_CURVE('',#189,#189,#160,.T.);
#219=EDGE_CURVE('',#190,#190,#161,.T.);
#220=EDGE_CURVE('',#191,#191,#162,.T.);
#221=EDGE_CURVE('',#192,#192,#163,.T.);
#222=EDGE_CURVE('',#193,#193,#164,.T.);
#223=EDGE_CURVE('',#194,#194,#165,.T.);
#224=EDGE_CURVE('',#195,#195,#166,.T.);
#225=EDGE_CURVE('',#196,#196,#167,.T.);
#226=EDGE_CURVE('',#197,#197,#168,.T.);
#227=EDGE_CURVE('',#198,#198,#169,.T.);
#228=EDGE_CURVE('',#199,#199,#170,.T.);
#229=EDGE_CURVE('',#200,#200,#171,.T.);
#230=EDGE_CURVE('',#201,#201,#172,.T.);
#231=EDGE_CURVE('',#202,#202,#173,.T.);
#232=EDGE_CURVE('',#203,#203,#174,.T.);
#233=EDGE_CURVE('',#204,#204,#175,.T.);
#234=EDGE_CURVE('',#205,#205,#176,.T.);
#235=EDGE_CURVE('',#206,#206,#177,.T.);
#236=EDGE_CURVE('',#207,#207,#178,.T.);
#237=EDGE_CURVE('',#208,#208,#179,.T.);
#238=EDGE_CURVE('',#209,#209,#180,.T.);
#239=EDGE_CURVE('',#210,#210,#181,.T.);
#240=ORIENTED_EDGE('',*,*,#211,.T.);
#241=ORIENTED_EDGE('',*,*,#212,.F.);
#242=ORIENTED_EDGE('',*,*,#212,.T.);
#243=ORIENTED_EDGE('',*,*,#213,.F.);
#244=ORIENTED_EDGE('',*,*,#213,.T.);
#245=ORIENTED_EDGE('',*,*,#214,.F.);
#246=ORIENTED_EDGE('',*,*,#211,.F.);
#247=ORIENTED_EDGE('',*,*,#215,.T.);
#248=ORIENTED_EDGE('',*,*,#214,.T.);
#249=ORIENTED_EDGE('',*,*,#216,.F.);
#250=ORIENTED_EDGE('',*,*,#216,.T.);
#251=ORIENTED_EDGE('',*,*,#217,.F.);
#252=ORIENTED_EDGE('',*,*,#218,.F.);
#253=ORIENTED_EDGE('',*,*,#217,.T.);
#254=ORIENTED_EDGE('',*,*,#218,.T.);
#255=ORIENTED_EDGE('',*,*,#219,.F.);
#256=ORIENTED_EDGE('',*,*,#219,.T.);
#257=ORIENTED_EDGE('',*,*,#220,.F.);
#258=ORIENTED_EDGE('',*,*,#220,.T.);
#259=ORIENTED_EDGE('',*,*,#221,.F.);
#260=ORIENTED_EDGE('',*,*,#221,.T.);
#261=ORIENTED_EDGE('',*,*,#222,.F.);
#262=ORIENTED_EDGE('',*,*,#222,.T.);
#263=ORIENTED_EDGE('',*,*,#223,.F.);
#264=ORIENTED_EDGE('',*,*,#223,.T.);
#265=ORIENTED_EDGE('',*,*,#224,.F.);
#266=ORIENTED_EDGE('',*,*,#224,.T.);
#267=ORIENTED_EDGE('',*,*,#225,.F.);
#268=ORIENTED_EDGE('',*,*,#225,.T.);
#269=ORIENTED_EDGE('',*,*,#226,.F.);
#270=ORIENTED_EDGE('',*,*,#226,.T.);
#271=ORIENTED_EDGE('',*,*,#227,.F.);
#272=ORIENTED_EDGE('',*,*,#227,.T.);
#273=ORIENTED_EDGE('',*,*,#228,.F.);
#274=ORIENTED_EDGE('',*,*,#229,.F.);
#275=ORIENTED_EDGE('',*,*,#228,.T.);
#276=ORIENTED_EDGE('',*,*,#229,.T.);
#277=ORIENTED_EDGE('',*,*,#230,.F.);
#278=ORIENTED_EDGE('',*,*,#230,.T.);
#279=ORIENTED_EDGE('',*,*,#231,.F.);
#280=ORIENTED_EDGE('',*,*,#231,.T.);
#281=ORIENTED_EDGE('',*,*,#232,.F.);
#282=ORIENTED_EDGE('',*,*,#232,.T.);
#283=ORIENTED_EDGE('',*,*,#233,.F.);
#284=ORIENTED_EDGE('',*,*,#233,.T.);
#285=ORIENTED_EDGE('',*,*,#234,.F.);
#286=ORIENTED_EDGE('',*,*,#234,.T.);
#287=ORIENTED_EDGE('',*,*,#235,.F.);
#288=ORIENTED_EDGE('',*,*,#235,.T.);
#289=ORIENTED_EDGE('',*,*,#236,.F.);
#290=ORIENTED_EDGE('',*,*,#236,.T.);
#291=ORIENTED_EDGE('',*,*,#237,.F.);
#292=ORIENTED_EDGE('',*,*,#237,.T.);
#293=ORIENTED_EDGE('',*,*,#238,.F.);
#294=ORIENTED_EDGE('',*,*,#238,.T.);
#295=ORIENTED_EDGE('',*,*,#239,.F.);
#296=ORIENTED_EDGE('',*,*,#239,.T.);
#297=ORIENTED_EDGE('',*,*,#215,.F.);
#298=CONICAL_SURFACE('',#336,15.6310889132455,15.);
#299=CONICAL_SURFACE('',#345,15.225,15.);
#300=CONICAL_SURFACE('',#355,17.6305045099617,84.9999999999995);
#301=CONICAL_SURFACE('',#363,17.95,83.0000000000018);
#302=CONICAL_SURFACE('',#379,19.3109346717026,82.9999999999979);
#303=CONICAL_SURFACE('',#387,19.2185778713738,85.0000000000005);
#304=CONICAL_SURFACE('',#393,17.125,15.);
#305=ADVANCED_FACE('',(#66,#37),#298,.T.);
#306=ADVANCED_FACE('',(#67,#38),#34,.T.);
#307=ADVANCED_FACE('',(#68,#39),#25,.F.);
#308=ADVANCED_FACE('',(#69,#40),#26,.T.);
#309=ADVANCED_FACE('',(#70,#41),#299,.F.);
#310=ADVANCED_FACE('',(#71,#42),#27,.F.);
#311=ADVANCED_FACE('',(#72,#43),#35,.T.);
#312=ADVANCED_FACE('',(#73,#44),#28,.F.);
#313=ADVANCED_FACE('',(#74,#45),#15,.T.);
#314=ADVANCED_FACE('',(#75,#46),#300,.F.);
#315=ADVANCED_FACE('',(#76,#47),#16,.F.);
#316=ADVANCED_FACE('',(#77,#48),#29,.F.);
#317=ADVANCED_FACE('',(#78,#49),#17,.F.);
#318=ADVANCED_FACE('',(#79,#50),#301,.F.);
#319=ADVANCED_FACE('',(#80,#51),#18,.T.);
#320=ADVANCED_FACE('',(#81,#52),#30,.F.);
#321=ADVANCED_FACE('',(#82,#53),#19,.T.);
#322=ADVANCED_FACE('',(#83,#54),#36,.T.);
#323=ADVANCED_FACE('',(#84,#55),#20,.T.);
#324=ADVANCED_FACE('',(#85,#56),#31,.T.);
#325=ADVANCED_FACE('',(#86,#57),#21,.F.);
#326=ADVANCED_FACE('',(#87,#58),#302,.T.);
#327=ADVANCED_FACE('',(#88,#59),#22,.T.);
#328=ADVANCED_FACE('',(#89,#60),#32,.T.);
#329=ADVANCED_FACE('',(#90,#61),#23,.T.);
#330=ADVANCED_FACE('',(#91,#62),#303,.T.);
#331=ADVANCED_FACE('',(#92,#63),#24,.F.);
#332=ADVANCED_FACE('',(#93,#64),#33,.T.);
#333=ADVANCED_FACE('',(#94,#65),#304,.T.);
#334=CLOSED_SHELL('',(#305,#306,#307,#308,#309,#310,#311,#312,#313,#314,
#315,#316,#317,#318,#319,#320,#321,#322,#323,#324,#325,#326,#327,#328,#329,
#330,#331,#332,#333));
#335=AXIS2_PLACEMENT_3D('placement',#512,#394,#395);
#336=AXIS2_PLACEMENT_3D('',#513,#396,#397);
#337=AXIS2_PLACEMENT_3D('',#515,#398,#399);
#338=AXIS2_PLACEMENT_3D('',#517,#400,#401);
#339=AXIS2_PLACEMENT_3D('',#518,#402,#403);
#340=AXIS2_PLACEMENT_3D('',#520,#404,#405);
#341=AXIS2_PLACEMENT_3D('',#521,#406,#407);
#342=AXIS2_PLACEMENT_3D('',#523,#408,#409);
#343=AXIS2_PLACEMENT_3D('',#524,#410,#411);
#344=AXIS2_PLACEMENT_3D('',#526,#412,#413);
#345=AXIS2_PLACEMENT_3D('',#527,#414,#415);
#346=AXIS2_PLACEMENT_3D('',#529,#416,#417);
#347=AXIS2_PLACEMENT_3D('',#530,#418,#419);
#348=AXIS2_PLACEMENT_3D('',#532,#420,#421);
#349=AXIS2_PLACEMENT_3D('',#533,#422,#423);
#350=AXIS2_PLACEMENT_3D('',#535,#424,#425);
#351=AXIS2_PLACEMENT_3D('',#536,#426,#427);
#352=AXIS2_PLACEMENT_3D('',#538,#428,#429);
#353=AXIS2_PLACEMENT_3D('',#539,#430,#431);
#354=AXIS2_PLACEMENT_3D('',#541,#432,#433);
#355=AXIS2_PLACEMENT_3D('',#542,#434,#435);
#356=AXIS2_PLACEMENT_3D('',#544,#436,#437);
#357=AXIS2_PLACEMENT_3D('',#545,#438,#439);
#358=AXIS2_PLACEMENT_3D('',#547,#440,#441);
#359=AXIS2_PLACEMENT_3D('',#548,#442,#443);
#360=AXIS2_PLACEMENT_3D('',#550,#444,#445);
#361=AXIS2_PLACEMENT_3D('',#551,#446,#447);
#362=AXIS2_PLACEMENT_3D('',#553,#448,#449);
#363=AXIS2_PLACEMENT_3D('',#554,#450,#451);
#364=AXIS2_PLACEMENT_3D('',#556,#452,#453);
#365=AXIS2_PLACEMENT_3D('',#557,#454,#455);
#366=AXIS2_PLACEMENT_3D('',#559,#456,#457);
#367=AXIS2_PLACEMENT_3D('',#560,#458,#459);
#368=AXIS2_PLACEMENT_3D('',#562,#460,#461);
#369=AXIS2_PLACEMENT_3D('',#563,#462,#463);
#370=AXIS2_PLACEMENT_3D('',#565,#464,#465);
#371=AXIS2_PLACEMENT_3D('',#566,#466,#467);
#372=AXIS2_PLACEMENT_3D('',#568,#468,#469);
#373=AXIS2_PLACEMENT_3D('',#569,#470,#471);
#374=AXIS2_PLACEMENT_3D('',#571,#472,#473);
#375=AXIS2_PLACEMENT_3D('',#572,#474,#475);
#376=AXIS2_PLACEMENT_3D('',#574,#476,#477);
#377=AXIS2_PLACEMENT_3D('',#575,#478,#479);
#378=AXIS2_PLACEMENT_3D('',#577,#480,#481);
#379=AXIS2_PLACEMENT_3D('',#578,#482,#483);
#380=AXIS2_PLACEMENT_3D('',#580,#484,#485);
#381=AXIS2_PLACEMENT_3D('',#581,#486,#487);
#382=AXIS2_PLACEMENT_3D('',#583,#488,#489);
#383=AXIS2_PLACEMENT_3D('',#584,#490,#491);
#384=AXIS2_PLACEMENT_3D('',#586,#492,#493);
#385=AXIS2_PLACEMENT_3D('',#587,#494,#495);
#386=AXIS2_PLACEMENT_3D('',#589,#496,#497);
#387=AXIS2_PLACEMENT_3D('',#590,#498,#499);
#388=AXIS2_PLACEMENT_3D('',#592,#500,#501);
#389=AXIS2_PLACEMENT_3D('',#593,#502,#503);
#390=AXIS2_PLACEMENT_3D('',#595,#504,#505);
#391=AXIS2_PLACEMENT_3D('',#596,#506,#507);
#392=AXIS2_PLACEMENT_3D('',#598,#508,#509);
#393=AXIS2_PLACEMENT_3D('',#599,#510,#511);
#394=DIRECTION('axis',(0.,0.,1.));
#395=DIRECTION('refdir',(1.,0.,0.));
#396=DIRECTION('center_axis',(0.,1.,0.));
#397=DIRECTION('ref_axis',(1.,0.,0.));
#398=DIRECTION('center_axis',(0.,-1.,0.));
#399=DIRECTION('ref_axis',(1.,0.,0.));
#400=DIRECTION('center_axis',(0.,-1.,0.));
#401=DIRECTION('ref_axis',(1.,0.,0.));
#402=DIRECTION('center_axis',(0.,-1.,0.));
#403=DIRECTION('ref_axis',(0.,0.,-1.));
#404=DIRECTION('center_axis',(0.,-1.,0.));
#405=DIRECTION('ref_axis',(1.,0.,0.));
#406=DIRECTION('center_axis',(0.,-1.,0.));
#407=DIRECTION('ref_axis',(1.,0.,0.));
#408=DIRECTION('center_axis',(0.,-1.,0.));
#409=DIRECTION('ref_axis',(1.,0.,0.));
#410=DIRECTION('center_axis',(0.,-1.,0.));
#411=DIRECTION('ref_axis',(1.,0.,0.));
#412=DIRECTION('center_axis',(0.,-1.,0.));
#413=DIRECTION('ref_axis',(1.,0.,0.));
#414=DIRECTION('center_axis',(0.,1.,0.));
#415=DIRECTION('ref_axis',(1.,0.,0.));
#416=DIRECTION('center_axis',(0.,-1.,0.));
#417=DIRECTION('ref_axis',(1.,0.,0.));
#418=DIRECTION('center_axis',(0.,-1.,0.));
#419=DIRECTION('ref_axis',(1.,0.,0.));
#420=DIRECTION('center_axis',(0.,-1.,0.));
#421=DIRECTION('ref_axis',(1.,0.,0.));
#422=DIRECTION('center_axis',(0.,1.,0.));
#423=DIRECTION('ref_axis',(0.,0.,1.));
#424=DIRECTION('center_axis',(0.,-1.,0.));
#425=DIRECTION('ref_axis',(1.,0.,0.));
#426=DIRECTION('center_axis',(0.,-1.,0.));
#427=DIRECTION('ref_axis',(1.,0.,0.));
#428=DIRECTION('center_axis',(0.,-1.,0.));
#429=DIRECTION('ref_axis',(1.,0.,0.));
#430=DIRECTION('center_axis',(0.,-1.,0.));
#431=DIRECTION('ref_axis',(0.,0.,-1.));
#432=DIRECTION('center_axis',(0.,-1.,0.));
#433=DIRECTION('ref_axis',(1.,0.,0.));
#434=DIRECTION('center_axis',(0.,1.,0.));
#435=DIRECTION('ref_axis',(1.,0.,0.));
#436=DIRECTION('center_axis',(0.,-1.,0.));
#437=DIRECTION('ref_axis',(1.,0.,0.));
#438=DIRECTION('center_axis',(0.,-1.,0.));
#439=DIRECTION('ref_axis',(0.,0.,-1.));
#440=DIRECTION('center_axis',(0.,-1.,0.));
#441=DIRECTION('ref_axis',(1.,0.,0.));
#442=DIRECTION('center_axis',(0.,-1.,0.));
#443=DIRECTION('ref_axis',(1.,0.,0.));
#444=DIRECTION('center_axis',(0.,-1.,0.));
#445=DIRECTION('ref_axis',(1.,0.,0.));
#446=DIRECTION('center_axis',(0.,-1.,0.));
#447=DIRECTION('ref_axis',(0.,0.,-1.));
#448=DIRECTION('center_axis',(0.,-1.,0.));
#449=DIRECTION('ref_axis',(1.,0.,0.));
#450=DIRECTION('center_axis',(0.,-1.,0.));
#451=DIRECTION('ref_axis',(1.,0.,0.));
#452=DIRECTION('center_axis',(0.,-1.,0.));
#453=DIRECTION('ref_axis',(1.,0.,0.));
#454=DIRECTION('center_axis',(0.,-1.,0.));
#455=DIRECTION('ref_axis',(0.,0.,-1.));
#456=DIRECTION('center_axis',(0.,-1.,0.));
#457=DIRECTION('ref_axis',(1.,0.,0.));
#458=DIRECTION('center_axis',(0.,-1.,0.));
#459=DIRECTION('ref_axis',(1.,0.,0.));
#460=DIRECTION('center_axis',(0.,-1.,0.));
#461=DIRECTION('ref_axis',(1.,0.,0.));
#462=DIRECTION('center_axis',(0.,-1.,0.));
#463=DIRECTION('ref_axis',(0.,0.,-1.));
#464=DIRECTION('center_axis',(0.,-1.,0.));
#465=DIRECTION('ref_axis',(1.,0.,0.));
#466=DIRECTION('center_axis',(0.,1.,0.));
#467=DIRECTION('ref_axis',(0.,0.,1.));
#468=DIRECTION('center_axis',(0.,-1.,0.));
#469=DIRECTION('ref_axis',(1.,0.,0.));
#470=DIRECTION('center_axis',(0.,-1.,0.));
#471=DIRECTION('ref_axis',(0.,0.,-1.));
#472=DIRECTION('center_axis',(0.,-1.,0.));
#473=DIRECTION('ref_axis',(1.,0.,0.));
#474=DIRECTION('center_axis',(0.,-1.,0.));
#475=DIRECTION('ref_axis',(1.,0.,0.));
#476=DIRECTION('center_axis',(0.,-1.,0.));
#477=DIRECTION('ref_axis',(1.,0.,0.));
#478=DIRECTION('center_axis',(0.,-1.,0.));
#479=DIRECTION('ref_axis',(0.,0.,-1.));
#480=DIRECTION('center_axis',(0.,-1.,0.));
#481=DIRECTION('ref_axis',(1.,0.,0.));
#482=DIRECTION('center_axis',(0.,-1.,0.));
#483=DIRECTION('ref_axis',(1.,0.,0.));
#484=DIRECTION('center_axis',(0.,-1.,0.));
#485=DIRECTION('ref_axis',(1.,0.,0.));
#486=DIRECTION('center_axis',(0.,-1.,0.));
#487=DIRECTION('ref_axis',(0.,0.,-1.));
#488=DIRECTION('center_axis',(0.,-1.,0.));
#489=DIRECTION('ref_axis',(1.,0.,0.));
#490=DIRECTION('center_axis',(0.,-1.,0.));
#491=DIRECTION('ref_axis',(1.,0.,0.));
#492=DIRECTION('center_axis',(0.,-1.,0.));
#493=DIRECTION('ref_axis',(1.,0.,0.));
#494=DIRECTION('center_axis',(0.,-1.,0.));
#495=DIRECTION('ref_axis',(0.,0.,-1.));
#496=DIRECTION('center_axis',(0.,-1.,0.));
#497=DIRECTION('ref_axis',(1.,0.,0.));
#498=DIRECTION('center_axis',(0.,1.,0.));
#499=DIRECTION('ref_axis',(1.,0.,0.));
#500=DIRECTION('center_axis',(0.,-1.,0.));
#501=DIRECTION('ref_axis',(1.,0.,0.));
#502=DIRECTION('center_axis',(0.,-1.,0.));
#503=DIRECTION('ref_axis',(0.,0.,-1.));
#504=DIRECTION('center_axis',(0.,-1.,0.));
#505=DIRECTION('ref_axis',(1.,0.,0.));
#506=DIRECTION('center_axis',(0.,-1.,0.));
#507=DIRECTION('ref_axis',(1.,0.,0.));
#508=DIRECTION('center_axis',(0.,-1.,0.));
#509=DIRECTION('ref_axis',(1.,0.,0.));
#510=DIRECTION('center_axis',(0.,1.,0.));
#511=DIRECTION('ref_axis',(1.,0.,0.));
#512=CARTESIAN_POINT('',(0.,0.,0.));
#513=CARTESIAN_POINT('Origin',(0.,-495.35288568297,0.));
#514=CARTESIAN_POINT('',(16.1,-493.60288568297,0.));
#515=CARTESIAN_POINT('Origin',(0.,-493.60288568297,0.));
#516=CARTESIAN_POINT('',(15.1621778264911,-497.10288568297,0.));
#517=CARTESIAN_POINT('Origin',(0.,-497.10288568297,0.));
#518=CARTESIAN_POINT('Origin',(14.1000000000001,-497.10288568297,0.));
#519=CARTESIAN_POINT('',(14.1000000000001,-497.10288568297,0.));
#520=CARTESIAN_POINT('Origin',(0.,-497.10288568297,0.));
#521=CARTESIAN_POINT('Origin',(0.,-248.551442841485,0.));
#522=CARTESIAN_POINT('',(14.1,-1.58900670399476E-14,0.));
#523=CARTESIAN_POINT('Origin',(0.,-1.60982338570648E-14,0.));
#524=CARTESIAN_POINT('Origin',(0.,0.254717832928171,0.));
#525=CARTESIAN_POINT('',(16.1,0.509435665856357,0.));
#526=CARTESIAN_POINT('Origin',(0.,0.509435665856356,0.));
#527=CARTESIAN_POINT('Origin',(0.,4.19855715851491,0.));
#528=CARTESIAN_POINT('',(16.35,8.39711431702984,0.));
#529=CARTESIAN_POINT('Origin',(0.,8.39711431702984,0.));
#530=CARTESIAN_POINT('Origin',(0.,21.8336850359736,0.));
#531=CARTESIAN_POINT('',(16.35,35.2702557549173,0.));
#532=CARTESIAN_POINT('Origin',(0.,35.2702557549173,0.));
#533=CARTESIAN_POINT('Origin',(16.5,35.2702557549173,0.));
#534=CARTESIAN_POINT('',(16.5,35.2702557549173,0.));
#535=CARTESIAN_POINT('Origin',(0.,35.2702557549173,0.));
#536=CARTESIAN_POINT('Origin',(0.,35.4037232853103,0.));
#537=CARTESIAN_POINT('',(16.5,35.5371908157033,0.));
#538=CARTESIAN_POINT('Origin',(0.,35.5371908157033,0.));
#539=CARTESIAN_POINT('Origin',(0.,35.5371908157033,0.));
#540=CARTESIAN_POINT('',(17.2302754058019,36.3341465741767,0.));
#541=CARTESIAN_POINT('Origin',(0.,36.3341465741767,0.));
#542=CARTESIAN_POINT('Origin',(0.,36.3691620836038,0.));
#543=CARTESIAN_POINT('',(18.0307336141215,36.404177593031,0.));
#544=CARTESIAN_POINT('Origin',(0.,36.404177593031,0.));
#545=CARTESIAN_POINT('Origin',(0.,37.8984696401686,0.));
#546=CARTESIAN_POINT('',(19.4,37.8984696401686,0.));
#547=CARTESIAN_POINT('Origin',(0.,37.8984696401686,0.));
#548=CARTESIAN_POINT('Origin',(0.,39.6452292235277,0.));
#549=CARTESIAN_POINT('',(19.4,41.3919888068867,0.));
#550=CARTESIAN_POINT('Origin',(0.,41.3919888068867,0.));
#551=CARTESIAN_POINT('Origin',(0.,41.3919888068867,0.));
#552=CARTESIAN_POINT('',(18.0828040151077,42.8808080343487,0.));
#553=CARTESIAN_POINT('Origin',(0.,42.8808080343487,0.));
#554=CARTESIAN_POINT('Origin',(0.,42.8971143170299,0.));
#555=CARTESIAN_POINT('',(17.8171959848923,42.913420599711,0.));
#556=CARTESIAN_POINT('Origin',(0.,42.913420599711,0.));
#557=CARTESIAN_POINT('Origin',(0.,44.402239827173,0.));
#558=CARTESIAN_POINT('',(16.5,44.402239827173,0.));
#559=CARTESIAN_POINT('Origin',(0.,44.402239827173,0.));
#560=CARTESIAN_POINT('Origin',(0.,45.8996770721014,0.));
#561=CARTESIAN_POINT('',(16.5,47.3971143170299,0.));
#562=CARTESIAN_POINT('Origin',(0.,47.3971143170298,0.));
#563=CARTESIAN_POINT('Origin',(0.,47.3971143170298,0.));
#564=CARTESIAN_POINT('',(17.,47.8971143170298,0.));
#565=CARTESIAN_POINT('Origin',(0.,47.8971143170298,0.));
#566=CARTESIAN_POINT('Origin',(17.8,47.8971143170299,0.));
#567=CARTESIAN_POINT('',(17.8,47.8971143170299,0.));
#568=CARTESIAN_POINT('Origin',(0.,47.8971143170298,0.));
#569=CARTESIAN_POINT('Origin',(0.,47.3971143170298,0.));
#570=CARTESIAN_POINT('',(18.3,47.3971143170299,0.));
#571=CARTESIAN_POINT('Origin',(0.,47.3971143170298,0.));
#572=CARTESIAN_POINT('Origin',(0.,46.4747484940628,0.));
#573=CARTESIAN_POINT('',(18.3,45.5523826710957,0.));
#574=CARTESIAN_POINT('Origin',(0.,45.5523826710957,0.));
#575=CARTESIAN_POINT('Origin',(0.,45.5523826710957,0.));
#576=CARTESIAN_POINT('',(19.1781306565949,44.5598365194544,0.));
#577=CARTESIAN_POINT('Origin',(0.,44.5598365194544,0.));
#578=CARTESIAN_POINT('Origin',(0.,44.5435302367732,0.));
#579=CARTESIAN_POINT('',(19.4437386868103,44.5272239540921,0.));
#580=CARTESIAN_POINT('Origin',(0.,44.5272239540921,0.));
#581=CARTESIAN_POINT('Origin',(0.,42.5421316508095,0.));
#582=CARTESIAN_POINT('',(21.2,42.5421316508095,0.));
#583=CARTESIAN_POINT('Origin',(0.,42.5421316508095,0.));
#584=CARTESIAN_POINT('Origin',(0.,39.6246853823777,0.));
#585=CARTESIAN_POINT('',(21.2,36.7072391139459,0.));
#586=CARTESIAN_POINT('Origin',(0.,36.7072391139459,0.));
#587=CARTESIAN_POINT('Origin',(0.,36.7072391139459,0.));
#588=CARTESIAN_POINT('',(19.3743114854953,34.7148497177624,0.));
#589=CARTESIAN_POINT('Origin',(0.,34.7148497177624,0.));
#590=CARTESIAN_POINT('Origin',(0.,34.7012247919969,0.));
#591=CARTESIAN_POINT('',(19.0628442572523,34.6875998662313,0.));
#592=CARTESIAN_POINT('Origin',(0.,34.6875998662313,0.));
#593=CARTESIAN_POINT('Origin',(0.,33.6914051681396,0.));
#594=CARTESIAN_POINT('',(18.15,33.6914051681396,0.));
#595=CARTESIAN_POINT('Origin',(0.,33.6914051681396,0.));
#596=CARTESIAN_POINT('Origin',(0.,20.9257724947561,0.));
#597=CARTESIAN_POINT('',(18.15,8.16013982137253,0.));
#598=CARTESIAN_POINT('Origin',(0.,8.16013982137253,0.));
#599=CARTESIAN_POINT('Origin',(0.,4.33478774361445,0.));
#600=UNCERTAINTY_MEASURE_WITH_UNIT(LENGTH_MEASURE(0.01),#604,
'DISTANCE_ACCURACY_VALUE',
'Maximum model space distance between geometric entities at asserted c
onnectivities');
#601=UNCERTAINTY_MEASURE_WITH_UNIT(LENGTH_MEASURE(1.E-6),#604,
'DISTANCE_ACCURACY_VALUE',
'Maximum model space distance between geometric entities at asserted c
onnectivities');
#602=(
GEOMETRIC_REPRESENTATION_CONTEXT(3)
GLOBAL_UNCERTAINTY_ASSIGNED_CONTEXT((#600))
GLOBAL_UNIT_ASSIGNED_CONTEXT((#604,#607,#605))
REPRESENTATION_CONTEXT('','3D')
);
#603=(
GEOMETRIC_REPRESENTATION_CONTEXT(3)
GLOBAL_UNCERTAINTY_ASSIGNED_CONTEXT((#601))
GLOBAL_UNIT_ASSIGNED_CONTEXT((#604,#607,#605))
REPRESENTATION_CONTEXT('','3D')
);
#604=(
LENGTH_UNIT()
NAMED_UNIT(*)
SI_UNIT(.MILLI.,.METRE.)
);
#605=(
NAMED_UNIT(*)
SI_UNIT($,.STERADIAN.)
SOLID_ANGLE_UNIT()
);
#606=DIMENSIONAL_EXPONENTS(0.,0.,0.,0.,0.,0.,0.);
#607=(
CONVERSION_BASED_UNIT('degree',#609)
NAMED_UNIT(#606)
PLANE_ANGLE_UNIT()
);
#608=(
NAMED_UNIT(*)
PLANE_ANGLE_UNIT()
SI_UNIT($,.RADIAN.)
);
#609=PLANE_ANGLE_MEASURE_WITH_UNIT(PLANE_ANGLE_MEASURE(0.01745329252),#608);
#610=SHAPE_DEFINITION_REPRESENTATION(#611,#612);
#611=PRODUCT_DEFINITION_SHAPE('',$,#614);
#612=SHAPE_REPRESENTATION('',(#335),#602);
#613=PRODUCT_DEFINITION_CONTEXT('part definition',#618,'design');
#614=PRODUCT_DEFINITION('559020 HTEM DN_OD 32x500 wei\X\DF',
'559020 HTEM DN_OD 32x500 wei\X\DF',#615,#613);
#615=PRODUCT_DEFINITION_FORMATION('',$,#620);
#616=PRODUCT_RELATED_PRODUCT_CATEGORY('559020 HTEM DN_OD 32x500 wei\X\DF',
'559020 HTEM DN_OD 32x500 wei\X\DF',(#620));
#617=APPLICATION_PROTOCOL_DEFINITION('international standard',
'automotive_design',2009,#618);
#618=APPLICATION_CONTEXT(
'Core Data for Automotive Mechanical Design Process');
#619=PRODUCT_CONTEXT('part definition',#618,'mechanical');
#620=PRODUCT('559020 HTEM DN_OD 32x500 wei\X\DF',
'559020 HTEM DN_OD 32x500 wei\X\DF',$,(#619));
#621=PRESENTATION_STYLE_ASSIGNMENT((#622));
#622=SURFACE_STYLE_USAGE(.BOTH.,#623);
#623=SURFACE_SIDE_STYLE('',(#624));
#624=SURFACE_STYLE_FILL_AREA(#625);
#625=FILL_AREA_STYLE('',(#626));
#626=FILL_AREA_STYLE_COLOUR('',#627);
#627=COLOUR_RGB('',0.749019607843137,0.749019607843137,0.749019607843137);
ENDSEC;
END-ISO-10303-21;
