ISO-10303-21;
HEADER;
/* Generated by software containing ST-Developer
 * from STEP Tools, Inc. (www.steptools.com) 
 */

FILE_DESCRIPTION(
/* description */ (''),
/* implementation_level */ '2;1');

FILE_NAME(
/* name */ 
'Y:\\ACad-Dateien\\Ostendorf\\Skolan Safe\\Kundenzeichnung\\338080 SKO
LANsafeGL Rohr ohne Muffe DN_OD 200x3000.stp',
/* time_stamp */ '2018-01-09T14:28:24+01:00',
/* author */ ('user1'),
/* organization */ (''),
/* preprocessor_version */ 'ST-DEVELOPER v16.1',
/* originating_system */ 'Autodesk Inventor 2016',
/* authorisation */ '');

FILE_SCHEMA (('AUTOMOTIVE_DESIGN { 1 0 10303 214 3 1 1 }'));
ENDSEC;

DATA;
#10=MECHANICAL_DESIGN_GEOMETRIC_PRESENTATION_REPRESENTATION('',(#13),#143);
#11=SHAPE_REPRESENTATION_RELATIONSHIP('SRR','None',#152,#12);
#12=ADVANCED_BREP_SHAPE_REPRESENTATION('',(#14),#142);
#13=STYLED_ITEM('',(#161),#14);
#14=MANIFOLD_SOLID_BREP('Volumenk\X\F6rper1',#81);
#15=PLANE('',#90);
#16=PLANE('',#94);
#17=CYLINDRICAL_SURFACE('',#86,99.9999999999999);
#18=CYLINDRICAL_SURFACE('',#92,93.8000000000001);
#19=FACE_BOUND('',#32,.T.);
#20=FACE_BOUND('',#34,.T.);
#21=FACE_BOUND('',#36,.T.);
#22=FACE_BOUND('',#38,.T.);
#23=FACE_BOUND('',#40,.T.);
#24=FACE_BOUND('',#42,.T.);
#25=FACE_OUTER_BOUND('',#31,.T.);
#26=FACE_OUTER_BOUND('',#33,.T.);
#27=FACE_OUTER_BOUND('',#35,.T.);
#28=FACE_OUTER_BOUND('',#37,.T.);
#29=FACE_OUTER_BOUND('',#39,.T.);
#30=FACE_OUTER_BOUND('',#41,.T.);
#31=EDGE_LOOP('',(#61));
#32=EDGE_LOOP('',(#62));
#33=EDGE_LOOP('',(#63));
#34=EDGE_LOOP('',(#64));
#35=EDGE_LOOP('',(#65));
#36=EDGE_LOOP('',(#66));
#37=EDGE_LOOP('',(#67));
#38=EDGE_LOOP('',(#68));
#39=EDGE_LOOP('',(#69));
#40=EDGE_LOOP('',(#70));
#41=EDGE_LOOP('',(#71));
#42=EDGE_LOOP('',(#72));
#43=CIRCLE('',#84,97.856406460551);
#44=CIRCLE('',#85,100.);
#45=CIRCLE('',#87,99.9999999999998);
#46=CIRCLE('',#89,97.8564064605508);
#47=CIRCLE('',#91,93.7999999999998);
#48=CIRCLE('',#93,93.8000000000003);
#49=VERTEX_POINT('',#123);
#50=VERTEX_POINT('',#125);
#51=VERTEX_POINT('',#128);
#52=VERTEX_POINT('',#131);
#53=VERTEX_POINT('',#134);
#54=VERTEX_POINT('',#137);
#55=EDGE_CURVE('',#49,#49,#43,.T.);
#56=EDGE_CURVE('',#50,#50,#44,.T.);
#57=EDGE_CURVE('',#51,#51,#45,.T.);
#58=EDGE_CURVE('',#52,#52,#46,.T.);
#59=EDGE_CURVE('',#53,#53,#47,.T.);
#60=EDGE_CURVE('',#54,#54,#48,.T.);
#61=ORIENTED_EDGE('',*,*,#55,.T.);
#62=ORIENTED_EDGE('',*,*,#56,.F.);
#63=ORIENTED_EDGE('',*,*,#56,.T.);
#64=ORIENTED_EDGE('',*,*,#57,.F.);
#65=ORIENTED_EDGE('',*,*,#57,.T.);
#66=ORIENTED_EDGE('',*,*,#58,.F.);
#67=ORIENTED_EDGE('',*,*,#58,.T.);
#68=ORIENTED_EDGE('',*,*,#59,.F.);
#69=ORIENTED_EDGE('',*,*,#59,.T.);
#70=ORIENTED_EDGE('',*,*,#60,.F.);
#71=ORIENTED_EDGE('',*,*,#55,.F.);
#72=ORIENTED_EDGE('',*,*,#60,.T.);
#73=CONICAL_SURFACE('',#83,98.9282032302755,15.);
#74=CONICAL_SURFACE('',#88,98.9282032302753,15.0000000000002);
#75=ADVANCED_FACE('',(#25,#19),#73,.T.);
#76=ADVANCED_FACE('',(#26,#20),#17,.T.);
#77=ADVANCED_FACE('',(#27,#21),#74,.T.);
#78=ADVANCED_FACE('',(#28,#22),#15,.T.);
#79=ADVANCED_FACE('',(#29,#23),#18,.F.);
#80=ADVANCED_FACE('',(#30,#24),#16,.T.);
#81=CLOSED_SHELL('',(#75,#76,#77,#78,#79,#80));
#82=AXIS2_PLACEMENT_3D('placement',#121,#95,#96);
#83=AXIS2_PLACEMENT_3D('',#122,#97,#98);
#84=AXIS2_PLACEMENT_3D('',#124,#99,#100);
#85=AXIS2_PLACEMENT_3D('',#126,#101,#102);
#86=AXIS2_PLACEMENT_3D('',#127,#103,#104);
#87=AXIS2_PLACEMENT_3D('',#129,#105,#106);
#88=AXIS2_PLACEMENT_3D('',#130,#107,#108);
#89=AXIS2_PLACEMENT_3D('',#132,#109,#110);
#90=AXIS2_PLACEMENT_3D('',#133,#111,#112);
#91=AXIS2_PLACEMENT_3D('',#135,#113,#114);
#92=AXIS2_PLACEMENT_3D('',#136,#115,#116);
#93=AXIS2_PLACEMENT_3D('',#138,#117,#118);
#94=AXIS2_PLACEMENT_3D('',#139,#119,#120);
#95=DIRECTION('axis',(0.,0.,1.));
#96=DIRECTION('refdir',(1.,0.,0.));
#97=DIRECTION('center_axis',(0.,1.,0.));
#98=DIRECTION('ref_axis',(1.,0.,0.));
#99=DIRECTION('center_axis',(0.,1.,0.));
#100=DIRECTION('ref_axis',(1.,0.,0.));
#101=DIRECTION('center_axis',(0.,1.,0.));
#102=DIRECTION('ref_axis',(1.,0.,0.));
#103=DIRECTION('center_axis',(0.,1.,0.));
#104=DIRECTION('ref_axis',(1.,0.,0.));
#105=DIRECTION('center_axis',(0.,1.,0.));
#106=DIRECTION('ref_axis',(1.,0.,0.));
#107=DIRECTION('center_axis',(0.,-1.,0.));
#108=DIRECTION('ref_axis',(1.,0.,0.));
#109=DIRECTION('center_axis',(0.,1.,0.));
#110=DIRECTION('ref_axis',(1.,0.,0.));
#111=DIRECTION('center_axis',(0.,1.,0.));
#112=DIRECTION('ref_axis',(0.,0.,1.));
#113=DIRECTION('center_axis',(0.,1.,0.));
#114=DIRECTION('ref_axis',(1.,0.,0.));
#115=DIRECTION('center_axis',(0.,1.,0.));
#116=DIRECTION('ref_axis',(1.,0.,0.));
#117=DIRECTION('center_axis',(0.,1.,0.));
#118=DIRECTION('ref_axis',(1.,0.,0.));
#119=DIRECTION('center_axis',(0.,-1.,0.));
#120=DIRECTION('ref_axis',(0.,0.,-1.));
#121=CARTESIAN_POINT('',(0.,0.,0.));
#122=CARTESIAN_POINT('Origin',(-0.474451871624844,-287.728171096261,0.));
#123=CARTESIAN_POINT('',(97.3819545889262,-291.728171096261,0.));
#124=CARTESIAN_POINT('Origin',(-0.474451871624844,-291.728171096261,0.));
#125=CARTESIAN_POINT('',(99.5255481283752,-283.728171096261,0.));
#126=CARTESIAN_POINT('Origin',(-0.474451871624844,-283.728171096261,0.));
#127=CARTESIAN_POINT('Origin',(-0.474451871624844,1208.27182890374,0.));
#128=CARTESIAN_POINT('',(99.525548128375,2700.27182890374,0.));
#129=CARTESIAN_POINT('Origin',(-0.474451871624844,2700.27182890374,0.));
#130=CARTESIAN_POINT('Origin',(-0.474451871624844,2704.27182890374,0.));
#131=CARTESIAN_POINT('',(97.3819545889259,2708.27182890374,0.));
#132=CARTESIAN_POINT('Origin',(-0.474451871624844,2708.27182890374,0.));
#133=CARTESIAN_POINT('Origin',(93.3255481283749,2708.27182890374,0.));
#134=CARTESIAN_POINT('',(93.3255481283749,2708.27182890374,0.));
#135=CARTESIAN_POINT('Origin',(-0.474451871624844,2708.27182890374,0.));
#136=CARTESIAN_POINT('Origin',(-0.474451871624844,1208.27182890374,0.));
#137=CARTESIAN_POINT('',(93.3255481283755,-291.728171096261,0.));
#138=CARTESIAN_POINT('Origin',(-0.474451871624844,-291.728171096261,0.));
#139=CARTESIAN_POINT('Origin',(97.3819545889262,-291.728171096261,0.));
#140=UNCERTAINTY_MEASURE_WITH_UNIT(LENGTH_MEASURE(0.01),#144,
'DISTANCE_ACCURACY_VALUE',
'Maximum model space distance between geometric entities at asserted c
onnectivities');
#141=UNCERTAINTY_MEASURE_WITH_UNIT(LENGTH_MEASURE(1.E-6),#144,
'DISTANCE_ACCURACY_VALUE',
'Maximum model space distance between geometric entities at asserted c
onnectivities');
#142=(
GEOMETRIC_REPRESENTATION_CONTEXT(3)
GLOBAL_UNCERTAINTY_ASSIGNED_CONTEXT((#140))
GLOBAL_UNIT_ASSIGNED_CONTEXT((#144,#147,#145))
REPRESENTATION_CONTEXT('','3D')
);
#143=(
GEOMETRIC_REPRESENTATION_CONTEXT(3)
GLOBAL_UNCERTAINTY_ASSIGNED_CONTEXT((#141))
GLOBAL_UNIT_ASSIGNED_CONTEXT((#144,#147,#145))
REPRESENTATION_CONTEXT('','3D')
);
#144=(
LENGTH_UNIT()
NAMED_UNIT(*)
SI_UNIT(.MILLI.,.METRE.)
);
#145=(
NAMED_UNIT(*)
SI_UNIT($,.STERADIAN.)
SOLID_ANGLE_UNIT()
);
#146=DIMENSIONAL_EXPONENTS(0.,0.,0.,0.,0.,0.,0.);
#147=(
CONVERSION_BASED_UNIT('degree',#149)
NAMED_UNIT(#146)
PLANE_ANGLE_UNIT()
);
#148=(
NAMED_UNIT(*)
PLANE_ANGLE_UNIT()
SI_UNIT($,.RADIAN.)
);
#149=PLANE_ANGLE_MEASURE_WITH_UNIT(PLANE_ANGLE_MEASURE(0.01745329252),#148);
#150=SHAPE_DEFINITION_REPRESENTATION(#151,#152);
#151=PRODUCT_DEFINITION_SHAPE('',$,#154);
#152=SHAPE_REPRESENTATION('',(#82),#142);
#153=PRODUCT_DEFINITION_CONTEXT('part definition',#158,'design');
#154=PRODUCT_DEFINITION(
'338080 SKOLANsafeGL Rohr ohne Muffe DN_OD 200x3000',
'338080 SKOLANsafeGL Rohr ohne Muffe DN_OD 200x3000',#155,#153);
#155=PRODUCT_DEFINITION_FORMATION('',$,#160);
#156=PRODUCT_RELATED_PRODUCT_CATEGORY(
'338080 SKOLANsafeGL Rohr ohne Muffe DN_OD 200x3000',
'338080 SKOLANsafeGL Rohr ohne Muffe DN_OD 200x3000',(#160));
#157=APPLICATION_PROTOCOL_DEFINITION('international standard',
'automotive_design',2009,#158);
#158=APPLICATION_CONTEXT(
'Core Data for Automotive Mechanical Design Process');
#159=PRODUCT_CONTEXT('part definition',#158,'mechanical');
#160=PRODUCT('338080 SKOLANsafeGL Rohr ohne Muffe DN_OD 200x3000',
'338080 SKOLANsafeGL Rohr ohne Muffe DN_OD 200x3000',$,(#159));
#161=PRESENTATION_STYLE_ASSIGNMENT((#162));
#162=SURFACE_STYLE_USAGE(.BOTH.,#163);
#163=SURFACE_SIDE_STYLE('',(#164));
#164=SURFACE_STYLE_FILL_AREA(#165);
#165=FILL_AREA_STYLE('',(#166));
#166=FILL_AREA_STYLE_COLOUR('',#167);
#167=COLOUR_RGB('',0.749019607843137,0.749019607843137,0.749019607843137);
ENDSEC;
END-ISO-10303-21;
