ISO-10303-21;
HEADER;
/* Generated by software containing ST-Developer
 * from STEP Tools, Inc. (www.steptools.com) 
 */

FILE_DESCRIPTION(
/* description */ (''),
/* implementation_level */ '2;1');

FILE_NAME(
/* name */ 
'Y:\\ACad-Dateien\\Ostendorf\\Skolan Safe\\Kundenzeichnung\\334070 SKO
LANsafeEM Passl\X\E4ngen DN_OD 90x3000.stp',
/* time_stamp */ '2018-01-09T10:44:35+01:00',
/* author */ ('user1'),
/* organization */ (''),
/* preprocessor_version */ 'ST-DEVELOPER v16.1',
/* originating_system */ 'Autodesk Inventor 2016',
/* authorisation */ '');

FILE_SCHEMA (('AUTOMOTIVE_DESIGN { 1 0 10303 214 3 1 1 }'));
ENDSEC;

DATA;
#10=MECHANICAL_DESIGN_GEOMETRIC_PRESENTATION_REPRESENTATION('',(#13),#611);
#11=SHAPE_REPRESENTATION_RELATIONSHIP('SRR','None',#620,#12);
#12=ADVANCED_BREP_SHAPE_REPRESENTATION('',(#14),#610);
#13=STYLED_ITEM('',(#629),#14);
#14=MANIFOLD_SOLID_BREP('Volumenk\X\F6rper1',#324);
#15=(
BOUNDED_CURVE()
B_SPLINE_CURVE(2,(#594,#595,#596),.UNSPECIFIED.,.F.,.F.)
B_SPLINE_CURVE_WITH_KNOTS((3,3),(-0.170467262256094,0.170467262256094),
 .UNSPECIFIED.)
CURVE()
GEOMETRIC_REPRESENTATION_ITEM()
RATIONAL_B_SPLINE_CURVE((1.,0.985505606793007,1.))
REPRESENTATION_ITEM('')
);
#16=(
BOUNDED_SURFACE()
B_SPLINE_SURFACE(2,2,((#563,#564,#565,#566,#567,#568,#569,#570,#571),(#572,
#573,#574,#575,#576,#577,#578,#579,#580),(#581,#582,#583,#584,#585,#586,
#587,#588,#589)),.UNSPECIFIED.,.F.,.T.,.F.)
B_SPLINE_SURFACE_WITH_KNOTS((3,3),(3,2,2,2,3),(-0.170467262256094,0.170467262256094),
(-3.14159265358979,-1.5707963267949,0.,1.5707963267949,3.14159265358979),
 .UNSPECIFIED.)
GEOMETRIC_REPRESENTATION_ITEM()
RATIONAL_B_SPLINE_SURFACE(((1.,0.707106781186548,1.,0.707106781186548,1.,
0.707106781186548,1.,0.707106781186548,1.),(0.985505606793007,0.696857697460698,
0.985505606793007,0.696857697460698,0.985505606793007,0.696857697460698,
0.985505606793007,0.696857697460698,0.985505606793007),(1.,0.707106781186548,
1.,0.707106781186548,1.,0.707106781186548,1.,0.707106781186548,1.)))
REPRESENTATION_ITEM('')
SURFACE()
);
#17=PLANE('',#342);
#18=CONICAL_SURFACE('',#331,42.8035533905933,45.);
#19=CONICAL_SURFACE('',#338,47.1035533905932,45.0000000000009);
#20=CONICAL_SURFACE('',#348,47.7,84.9999999999978);
#21=CONICAL_SURFACE('',#356,47.7,79.9999999999953);
#22=CYLINDRICAL_SURFACE('',#329,40.65);
#23=CYLINDRICAL_SURFACE('',#336,45.15);
#24=CYLINDRICAL_SURFACE('',#343,45.25);
#25=CYLINDRICAL_SURFACE('',#352,50.15);
#26=CYLINDRICAL_SURFACE('',#360,45.25);
#27=CYLINDRICAL_SURFACE('',#377,49.35);
#28=FACE_BOUND('',#82,.T.);
#29=FACE_BOUND('',#84,.T.);
#30=FACE_BOUND('',#86,.T.);
#31=FACE_BOUND('',#88,.T.);
#32=FACE_BOUND('',#90,.T.);
#33=FACE_BOUND('',#92,.T.);
#34=FACE_BOUND('',#94,.T.);
#35=FACE_BOUND('',#96,.T.);
#36=FACE_BOUND('',#98,.T.);
#37=FACE_BOUND('',#100,.T.);
#38=FACE_BOUND('',#102,.T.);
#39=FACE_BOUND('',#104,.T.);
#40=FACE_BOUND('',#106,.T.);
#41=FACE_BOUND('',#108,.T.);
#42=FACE_BOUND('',#110,.T.);
#43=FACE_BOUND('',#112,.T.);
#44=FACE_BOUND('',#114,.T.);
#45=FACE_BOUND('',#116,.T.);
#46=FACE_BOUND('',#118,.T.);
#47=FACE_BOUND('',#120,.T.);
#48=FACE_BOUND('',#122,.T.);
#49=FACE_BOUND('',#125,.T.);
#50=FACE_BOUND('',#127,.T.);
#51=FACE_BOUND('',#129,.T.);
#52=FACE_BOUND('',#131,.T.);
#53=FACE_BOUND('',#133,.T.);
#54=FACE_OUTER_BOUND('',#81,.T.);
#55=FACE_OUTER_BOUND('',#83,.T.);
#56=FACE_OUTER_BOUND('',#85,.T.);
#57=FACE_OUTER_BOUND('',#87,.T.);
#58=FACE_OUTER_BOUND('',#89,.T.);
#59=FACE_OUTER_BOUND('',#91,.T.);
#60=FACE_OUTER_BOUND('',#93,.T.);
#61=FACE_OUTER_BOUND('',#95,.T.);
#62=FACE_OUTER_BOUND('',#97,.T.);
#63=FACE_OUTER_BOUND('',#99,.T.);
#64=FACE_OUTER_BOUND('',#101,.T.);
#65=FACE_OUTER_BOUND('',#103,.T.);
#66=FACE_OUTER_BOUND('',#105,.T.);
#67=FACE_OUTER_BOUND('',#107,.T.);
#68=FACE_OUTER_BOUND('',#109,.T.);
#69=FACE_OUTER_BOUND('',#111,.T.);
#70=FACE_OUTER_BOUND('',#113,.T.);
#71=FACE_OUTER_BOUND('',#115,.T.);
#72=FACE_OUTER_BOUND('',#117,.T.);
#73=FACE_OUTER_BOUND('',#119,.T.);
#74=FACE_OUTER_BOUND('',#121,.T.);
#75=FACE_OUTER_BOUND('',#123,.T.);
#76=FACE_OUTER_BOUND('',#124,.T.);
#77=FACE_OUTER_BOUND('',#126,.T.);
#78=FACE_OUTER_BOUND('',#128,.T.);
#79=FACE_OUTER_BOUND('',#130,.T.);
#80=FACE_OUTER_BOUND('',#132,.T.);
#81=EDGE_LOOP('',(#222));
#82=EDGE_LOOP('',(#223));
#83=EDGE_LOOP('',(#224));
#84=EDGE_LOOP('',(#225));
#85=EDGE_LOOP('',(#226));
#86=EDGE_LOOP('',(#227));
#87=EDGE_LOOP('',(#228));
#88=EDGE_LOOP('',(#229));
#89=EDGE_LOOP('',(#230));
#90=EDGE_LOOP('',(#231));
#91=EDGE_LOOP('',(#232));
#92=EDGE_LOOP('',(#233));
#93=EDGE_LOOP('',(#234));
#94=EDGE_LOOP('',(#235));
#95=EDGE_LOOP('',(#236));
#96=EDGE_LOOP('',(#237));
#97=EDGE_LOOP('',(#238));
#98=EDGE_LOOP('',(#239));
#99=EDGE_LOOP('',(#240));
#100=EDGE_LOOP('',(#241));
#101=EDGE_LOOP('',(#242));
#102=EDGE_LOOP('',(#243));
#103=EDGE_LOOP('',(#244));
#104=EDGE_LOOP('',(#245));
#105=EDGE_LOOP('',(#246));
#106=EDGE_LOOP('',(#247));
#107=EDGE_LOOP('',(#248));
#108=EDGE_LOOP('',(#249));
#109=EDGE_LOOP('',(#250));
#110=EDGE_LOOP('',(#251));
#111=EDGE_LOOP('',(#252));
#112=EDGE_LOOP('',(#253));
#113=EDGE_LOOP('',(#254));
#114=EDGE_LOOP('',(#255));
#115=EDGE_LOOP('',(#256));
#116=EDGE_LOOP('',(#257));
#117=EDGE_LOOP('',(#258));
#118=EDGE_LOOP('',(#259));
#119=EDGE_LOOP('',(#260));
#120=EDGE_LOOP('',(#261));
#121=EDGE_LOOP('',(#262));
#122=EDGE_LOOP('',(#263,#264));
#123=EDGE_LOOP('',(#265,#266,#267,#268,#269,#270));
#124=EDGE_LOOP('',(#271,#272));
#125=EDGE_LOOP('',(#273));
#126=EDGE_LOOP('',(#274));
#127=EDGE_LOOP('',(#275));
#128=EDGE_LOOP('',(#276));
#129=EDGE_LOOP('',(#277));
#130=EDGE_LOOP('',(#278));
#131=EDGE_LOOP('',(#279));
#132=EDGE_LOOP('',(#280));
#133=EDGE_LOOP('',(#281));
#134=CIRCLE('',#327,40.65);
#135=CIRCLE('',#328,40.9428932188134);
#136=CIRCLE('',#330,40.65);
#137=CIRCLE('',#332,44.9571067811866);
#138=CIRCLE('',#334,45.4428932188135);
#139=CIRCLE('',#335,45.15);
#140=CIRCLE('',#337,45.15);
#141=CIRCLE('',#339,49.0571067811866);
#142=CIRCLE('',#341,42.896794344809);
#143=CIRCLE('',#344,45.25);
#144=CIRCLE('',#345,45.25);
#145=CIRCLE('',#347,46.1628442572523);
#146=CIRCLE('',#349,49.2371557427477);
#147=CIRCLE('',#351,50.15);
#148=CIRCLE('',#353,50.15);
#149=CIRCLE('',#355,49.3236481776669);
#150=CIRCLE('',#357,46.0763518223331);
#151=CIRCLE('',#359,45.25);
#152=CIRCLE('',#361,45.25);
#153=CIRCLE('',#363,46.25);
#154=CIRCLE('',#365,49.7165989766271);
#155=CIRCLE('',#367,51.4427560925951);
#156=CIRCLE('',#369,53.1441569902036);
#157=CIRCLE('',#370,53.1441569902036);
#158=CIRCLE('',#371,53.1441569902036);
#159=CIRCLE('',#372,53.1441569902036);
#160=CIRCLE('',#374,51.2833144781193);
#161=CIRCLE('',#376,49.35);
#162=CIRCLE('',#378,49.35);
#163=VERTEX_POINT('',#495);
#164=VERTEX_POINT('',#497);
#165=VERTEX_POINT('',#500);
#166=VERTEX_POINT('',#503);
#167=VERTEX_POINT('',#506);
#168=VERTEX_POINT('',#508);
#169=VERTEX_POINT('',#511);
#170=VERTEX_POINT('',#514);
#171=VERTEX_POINT('',#517);
#172=VERTEX_POINT('',#521);
#173=VERTEX_POINT('',#523);
#174=VERTEX_POINT('',#526);
#175=VERTEX_POINT('',#529);
#176=VERTEX_POINT('',#532);
#177=VERTEX_POINT('',#535);
#178=VERTEX_POINT('',#538);
#179=VERTEX_POINT('',#541);
#180=VERTEX_POINT('',#544);
#181=VERTEX_POINT('',#547);
#182=VERTEX_POINT('',#550);
#183=VERTEX_POINT('',#553);
#184=VERTEX_POINT('',#556);
#185=VERTEX_POINT('',#559);
#186=VERTEX_POINT('',#560);
#187=VERTEX_POINT('',#590);
#188=VERTEX_POINT('',#591);
#189=VERTEX_POINT('',#598);
#190=VERTEX_POINT('',#601);
#191=VERTEX_POINT('',#604);
#192=EDGE_CURVE('',#163,#163,#134,.T.);
#193=EDGE_CURVE('',#164,#164,#135,.T.);
#194=EDGE_CURVE('',#165,#165,#136,.T.);
#195=EDGE_CURVE('',#166,#166,#137,.T.);
#196=EDGE_CURVE('',#167,#167,#138,.T.);
#197=EDGE_CURVE('',#168,#168,#139,.T.);
#198=EDGE_CURVE('',#169,#169,#140,.T.);
#199=EDGE_CURVE('',#170,#170,#141,.T.);
#200=EDGE_CURVE('',#171,#171,#142,.T.);
#201=EDGE_CURVE('',#172,#172,#143,.T.);
#202=EDGE_CURVE('',#173,#173,#144,.T.);
#203=EDGE_CURVE('',#174,#174,#145,.T.);
#204=EDGE_CURVE('',#175,#175,#146,.T.);
#205=EDGE_CURVE('',#176,#176,#147,.T.);
#206=EDGE_CURVE('',#177,#177,#148,.T.);
#207=EDGE_CURVE('',#178,#178,#149,.T.);
#208=EDGE_CURVE('',#179,#179,#150,.T.);
#209=EDGE_CURVE('',#180,#180,#151,.T.);
#210=EDGE_CURVE('',#181,#181,#152,.T.);
#211=EDGE_CURVE('',#182,#182,#153,.T.);
#212=EDGE_CURVE('',#183,#183,#154,.T.);
#213=EDGE_CURVE('',#184,#184,#155,.T.);
#214=EDGE_CURVE('',#185,#186,#156,.T.);
#215=EDGE_CURVE('',#186,#185,#157,.T.);
#216=EDGE_CURVE('',#187,#188,#158,.T.);
#217=EDGE_CURVE('',#188,#187,#159,.T.);
#218=EDGE_CURVE('',#188,#186,#15,.T.);
#219=EDGE_CURVE('',#189,#189,#160,.T.);
#220=EDGE_CURVE('',#190,#190,#161,.T.);
#221=EDGE_CURVE('',#191,#191,#162,.T.);
#222=ORIENTED_EDGE('',*,*,#192,.T.);
#223=ORIENTED_EDGE('',*,*,#193,.T.);
#224=ORIENTED_EDGE('',*,*,#194,.T.);
#225=ORIENTED_EDGE('',*,*,#192,.F.);
#226=ORIENTED_EDGE('',*,*,#195,.F.);
#227=ORIENTED_EDGE('',*,*,#193,.F.);
#228=ORIENTED_EDGE('',*,*,#196,.T.);
#229=ORIENTED_EDGE('',*,*,#197,.T.);
#230=ORIENTED_EDGE('',*,*,#198,.F.);
#231=ORIENTED_EDGE('',*,*,#197,.F.);
#232=ORIENTED_EDGE('',*,*,#199,.T.);
#233=ORIENTED_EDGE('',*,*,#196,.F.);
#234=ORIENTED_EDGE('',*,*,#198,.T.);
#235=ORIENTED_EDGE('',*,*,#200,.F.);
#236=ORIENTED_EDGE('',*,*,#200,.T.);
#237=ORIENTED_EDGE('',*,*,#194,.F.);
#238=ORIENTED_EDGE('',*,*,#201,.T.);
#239=ORIENTED_EDGE('',*,*,#202,.F.);
#240=ORIENTED_EDGE('',*,*,#202,.T.);
#241=ORIENTED_EDGE('',*,*,#203,.F.);
#242=ORIENTED_EDGE('',*,*,#203,.T.);
#243=ORIENTED_EDGE('',*,*,#204,.F.);
#244=ORIENTED_EDGE('',*,*,#204,.T.);
#245=ORIENTED_EDGE('',*,*,#205,.F.);
#246=ORIENTED_EDGE('',*,*,#205,.T.);
#247=ORIENTED_EDGE('',*,*,#206,.F.);
#248=ORIENTED_EDGE('',*,*,#206,.T.);
#249=ORIENTED_EDGE('',*,*,#207,.F.);
#250=ORIENTED_EDGE('',*,*,#207,.T.);
#251=ORIENTED_EDGE('',*,*,#208,.F.);
#252=ORIENTED_EDGE('',*,*,#208,.T.);
#253=ORIENTED_EDGE('',*,*,#209,.F.);
#254=ORIENTED_EDGE('',*,*,#209,.T.);
#255=ORIENTED_EDGE('',*,*,#210,.F.);
#256=ORIENTED_EDGE('',*,*,#210,.T.);
#257=ORIENTED_EDGE('',*,*,#211,.F.);
#258=ORIENTED_EDGE('',*,*,#211,.T.);
#259=ORIENTED_EDGE('',*,*,#212,.F.);
#260=ORIENTED_EDGE('',*,*,#212,.T.);
#261=ORIENTED_EDGE('',*,*,#213,.F.);
#262=ORIENTED_EDGE('',*,*,#213,.T.);
#263=ORIENTED_EDGE('',*,*,#214,.F.);
#264=ORIENTED_EDGE('',*,*,#215,.F.);
#265=ORIENTED_EDGE('',*,*,#216,.F.);
#266=ORIENTED_EDGE('',*,*,#217,.F.);
#267=ORIENTED_EDGE('',*,*,#218,.T.);
#268=ORIENTED_EDGE('',*,*,#215,.T.);
#269=ORIENTED_EDGE('',*,*,#214,.T.);
#270=ORIENTED_EDGE('',*,*,#218,.F.);
#271=ORIENTED_EDGE('',*,*,#216,.T.);
#272=ORIENTED_EDGE('',*,*,#217,.T.);
#273=ORIENTED_EDGE('',*,*,#219,.F.);
#274=ORIENTED_EDGE('',*,*,#219,.T.);
#275=ORIENTED_EDGE('',*,*,#220,.F.);
#276=ORIENTED_EDGE('',*,*,#220,.T.);
#277=ORIENTED_EDGE('',*,*,#221,.F.);
#278=ORIENTED_EDGE('',*,*,#221,.T.);
#279=ORIENTED_EDGE('',*,*,#199,.F.);
#280=ORIENTED_EDGE('',*,*,#195,.T.);
#281=ORIENTED_EDGE('',*,*,#201,.F.);
#282=TOROIDAL_SURFACE('',#326,41.65,1.);
#283=TOROIDAL_SURFACE('',#333,46.15,1.);
#284=TOROIDAL_SURFACE('',#340,33.15,12.);
#285=TOROIDAL_SURFACE('',#346,46.25,1.);
#286=TOROIDAL_SURFACE('',#350,49.15,1.);
#287=TOROIDAL_SURFACE('',#354,49.15,1.);
#288=TOROIDAL_SURFACE('',#358,46.25,1.);
#289=TOROIDAL_SURFACE('',#362,46.25,1.);
#290=TOROIDAL_SURFACE('',#364,46.25,3.5);
#291=TOROIDAL_SURFACE('',#366,54.6688832289516,5.);
#292=TOROIDAL_SURFACE('',#368,48.2166289562387,5.);
#293=TOROIDAL_SURFACE('',#373,48.2166289562387,5.);
#294=TOROIDAL_SURFACE('',#375,54.35,5.);
#295=TOROIDAL_SURFACE('',#379,48.35,1.00000000000006);
#296=TOROIDAL_SURFACE('',#380,44.25,0.999999999999952);
#297=ADVANCED_FACE('',(#54,#28),#282,.T.);
#298=ADVANCED_FACE('',(#55,#29),#22,.F.);
#299=ADVANCED_FACE('',(#56,#30),#18,.F.);
#300=ADVANCED_FACE('',(#57,#31),#283,.F.);
#301=ADVANCED_FACE('',(#58,#32),#23,.T.);
#302=ADVANCED_FACE('',(#59,#33),#19,.T.);
#303=ADVANCED_FACE('',(#60,#34),#284,.T.);
#304=ADVANCED_FACE('',(#61,#35),#17,.T.);
#305=ADVANCED_FACE('',(#62,#36),#24,.F.);
#306=ADVANCED_FACE('',(#63,#37),#285,.T.);
#307=ADVANCED_FACE('',(#64,#38),#20,.F.);
#308=ADVANCED_FACE('',(#65,#39),#286,.F.);
#309=ADVANCED_FACE('',(#66,#40),#25,.F.);
#310=ADVANCED_FACE('',(#67,#41),#287,.F.);
#311=ADVANCED_FACE('',(#68,#42),#21,.F.);
#312=ADVANCED_FACE('',(#69,#43),#288,.T.);
#313=ADVANCED_FACE('',(#70,#44),#26,.F.);
#314=ADVANCED_FACE('',(#71,#45),#289,.T.);
#315=ADVANCED_FACE('',(#72,#46),#290,.T.);
#316=ADVANCED_FACE('',(#73,#47),#291,.F.);
#317=ADVANCED_FACE('',(#74,#48),#292,.T.);
#318=ADVANCED_FACE('',(#75),#16,.F.);
#319=ADVANCED_FACE('',(#76,#49),#293,.T.);
#320=ADVANCED_FACE('',(#77,#50),#294,.F.);
#321=ADVANCED_FACE('',(#78,#51),#27,.T.);
#322=ADVANCED_FACE('',(#79,#52),#295,.T.);
#323=ADVANCED_FACE('',(#80,#53),#296,.F.);
#324=CLOSED_SHELL('',(#297,#298,#299,#300,#301,#302,#303,#304,#305,#306,
#307,#308,#309,#310,#311,#312,#313,#314,#315,#316,#317,#318,#319,#320,#321,
#322,#323));
#325=AXIS2_PLACEMENT_3D('placement',#493,#381,#382);
#326=AXIS2_PLACEMENT_3D('',#494,#383,#384);
#327=AXIS2_PLACEMENT_3D('',#496,#385,#386);
#328=AXIS2_PLACEMENT_3D('',#498,#387,#388);
#329=AXIS2_PLACEMENT_3D('',#499,#389,#390);
#330=AXIS2_PLACEMENT_3D('',#501,#391,#392);
#331=AXIS2_PLACEMENT_3D('',#502,#393,#394);
#332=AXIS2_PLACEMENT_3D('',#504,#395,#396);
#333=AXIS2_PLACEMENT_3D('',#505,#397,#398);
#334=AXIS2_PLACEMENT_3D('',#507,#399,#400);
#335=AXIS2_PLACEMENT_3D('',#509,#401,#402);
#336=AXIS2_PLACEMENT_3D('',#510,#403,#404);
#337=AXIS2_PLACEMENT_3D('',#512,#405,#406);
#338=AXIS2_PLACEMENT_3D('',#513,#407,#408);
#339=AXIS2_PLACEMENT_3D('',#515,#409,#410);
#340=AXIS2_PLACEMENT_3D('',#516,#411,#412);
#341=AXIS2_PLACEMENT_3D('',#518,#413,#414);
#342=AXIS2_PLACEMENT_3D('',#519,#415,#416);
#343=AXIS2_PLACEMENT_3D('',#520,#417,#418);
#344=AXIS2_PLACEMENT_3D('',#522,#419,#420);
#345=AXIS2_PLACEMENT_3D('',#524,#421,#422);
#346=AXIS2_PLACEMENT_3D('',#525,#423,#424);
#347=AXIS2_PLACEMENT_3D('',#527,#425,#426);
#348=AXIS2_PLACEMENT_3D('',#528,#427,#428);
#349=AXIS2_PLACEMENT_3D('',#530,#429,#430);
#350=AXIS2_PLACEMENT_3D('',#531,#431,#432);
#351=AXIS2_PLACEMENT_3D('',#533,#433,#434);
#352=AXIS2_PLACEMENT_3D('',#534,#435,#436);
#353=AXIS2_PLACEMENT_3D('',#536,#437,#438);
#354=AXIS2_PLACEMENT_3D('',#537,#439,#440);
#355=AXIS2_PLACEMENT_3D('',#539,#441,#442);
#356=AXIS2_PLACEMENT_3D('',#540,#443,#444);
#357=AXIS2_PLACEMENT_3D('',#542,#445,#446);
#358=AXIS2_PLACEMENT_3D('',#543,#447,#448);
#359=AXIS2_PLACEMENT_3D('',#545,#449,#450);
#360=AXIS2_PLACEMENT_3D('',#546,#451,#452);
#361=AXIS2_PLACEMENT_3D('',#548,#453,#454);
#362=AXIS2_PLACEMENT_3D('',#549,#455,#456);
#363=AXIS2_PLACEMENT_3D('',#551,#457,#458);
#364=AXIS2_PLACEMENT_3D('',#552,#459,#460);
#365=AXIS2_PLACEMENT_3D('',#554,#461,#462);
#366=AXIS2_PLACEMENT_3D('',#555,#463,#464);
#367=AXIS2_PLACEMENT_3D('',#557,#465,#466);
#368=AXIS2_PLACEMENT_3D('',#558,#467,#468);
#369=AXIS2_PLACEMENT_3D('',#561,#469,#470);
#370=AXIS2_PLACEMENT_3D('',#562,#471,#472);
#371=AXIS2_PLACEMENT_3D('',#592,#473,#474);
#372=AXIS2_PLACEMENT_3D('',#593,#475,#476);
#373=AXIS2_PLACEMENT_3D('',#597,#477,#478);
#374=AXIS2_PLACEMENT_3D('',#599,#479,#480);
#375=AXIS2_PLACEMENT_3D('',#600,#481,#482);
#376=AXIS2_PLACEMENT_3D('',#602,#483,#484);
#377=AXIS2_PLACEMENT_3D('',#603,#485,#486);
#378=AXIS2_PLACEMENT_3D('',#605,#487,#488);
#379=AXIS2_PLACEMENT_3D('',#606,#489,#490);
#380=AXIS2_PLACEMENT_3D('',#607,#491,#492);
#381=DIRECTION('axis',(0.,0.,1.));
#382=DIRECTION('refdir',(1.,0.,0.));
#383=DIRECTION('center_axis',(0.,-1.,0.));
#384=DIRECTION('ref_axis',(0.,0.,-1.));
#385=DIRECTION('center_axis',(0.,-1.,0.));
#386=DIRECTION('ref_axis',(-1.,0.,1.22464679914735E-16));
#387=DIRECTION('center_axis',(0.,1.,0.));
#388=DIRECTION('ref_axis',(-1.,0.,0.));
#389=DIRECTION('center_axis',(0.,-1.,0.));
#390=DIRECTION('ref_axis',(1.,0.,0.));
#391=DIRECTION('center_axis',(0.,-1.,0.));
#392=DIRECTION('ref_axis',(1.,0.,0.));
#393=DIRECTION('center_axis',(0.,1.,0.));
#394=DIRECTION('ref_axis',(1.,0.,0.));
#395=DIRECTION('center_axis',(0.,-1.,0.));
#396=DIRECTION('ref_axis',(1.,0.,0.));
#397=DIRECTION('center_axis',(0.,-1.,0.));
#398=DIRECTION('ref_axis',(0.,0.,-1.));
#399=DIRECTION('center_axis',(0.,-1.,0.));
#400=DIRECTION('ref_axis',(-1.,0.,0.));
#401=DIRECTION('center_axis',(0.,1.,0.));
#402=DIRECTION('ref_axis',(-1.,0.,1.22464679914735E-16));
#403=DIRECTION('center_axis',(0.,-1.,0.));
#404=DIRECTION('ref_axis',(1.,0.,0.));
#405=DIRECTION('center_axis',(0.,-1.,0.));
#406=DIRECTION('ref_axis',(1.,0.,0.));
#407=DIRECTION('center_axis',(0.,1.,0.));
#408=DIRECTION('ref_axis',(1.,0.,0.));
#409=DIRECTION('center_axis',(0.,-1.,0.));
#410=DIRECTION('ref_axis',(1.,0.,0.));
#411=DIRECTION('center_axis',(0.,-1.,0.));
#412=DIRECTION('ref_axis',(0.,0.,-1.));
#413=DIRECTION('center_axis',(0.,-1.,0.));
#414=DIRECTION('ref_axis',(1.,0.,0.));
#415=DIRECTION('center_axis',(0.,-1.,0.));
#416=DIRECTION('ref_axis',(0.,0.,-1.));
#417=DIRECTION('center_axis',(0.,-1.,0.));
#418=DIRECTION('ref_axis',(1.,0.,0.));
#419=DIRECTION('center_axis',(0.,-1.,0.));
#420=DIRECTION('ref_axis',(1.,0.,0.));
#421=DIRECTION('center_axis',(0.,-1.,0.));
#422=DIRECTION('ref_axis',(1.,0.,0.));
#423=DIRECTION('center_axis',(0.,-1.,0.));
#424=DIRECTION('ref_axis',(0.,0.,-1.));
#425=DIRECTION('center_axis',(0.,-1.,0.));
#426=DIRECTION('ref_axis',(1.,0.,0.));
#427=DIRECTION('center_axis',(0.,1.,0.));
#428=DIRECTION('ref_axis',(1.,0.,0.));
#429=DIRECTION('center_axis',(0.,-1.,0.));
#430=DIRECTION('ref_axis',(1.,0.,0.));
#431=DIRECTION('center_axis',(0.,-1.,0.));
#432=DIRECTION('ref_axis',(0.,0.,-1.));
#433=DIRECTION('center_axis',(0.,-1.,0.));
#434=DIRECTION('ref_axis',(1.,0.,0.));
#435=DIRECTION('center_axis',(0.,-1.,0.));
#436=DIRECTION('ref_axis',(1.,0.,0.));
#437=DIRECTION('center_axis',(0.,-1.,0.));
#438=DIRECTION('ref_axis',(1.,0.,0.));
#439=DIRECTION('center_axis',(0.,-1.,0.));
#440=DIRECTION('ref_axis',(0.,0.,-1.));
#441=DIRECTION('center_axis',(0.,-1.,0.));
#442=DIRECTION('ref_axis',(1.,0.,0.));
#443=DIRECTION('center_axis',(0.,-1.,0.));
#444=DIRECTION('ref_axis',(1.,0.,0.));
#445=DIRECTION('center_axis',(0.,-1.,0.));
#446=DIRECTION('ref_axis',(1.,0.,0.));
#447=DIRECTION('center_axis',(0.,-1.,0.));
#448=DIRECTION('ref_axis',(0.,0.,-1.));
#449=DIRECTION('center_axis',(0.,-1.,0.));
#450=DIRECTION('ref_axis',(1.,0.,0.));
#451=DIRECTION('center_axis',(0.,-1.,0.));
#452=DIRECTION('ref_axis',(1.,0.,0.));
#453=DIRECTION('center_axis',(0.,-1.,0.));
#454=DIRECTION('ref_axis',(1.,0.,0.));
#455=DIRECTION('center_axis',(0.,-1.,0.));
#456=DIRECTION('ref_axis',(0.,0.,-1.));
#457=DIRECTION('center_axis',(0.,-1.,0.));
#458=DIRECTION('ref_axis',(1.,0.,0.));
#459=DIRECTION('center_axis',(0.,-1.,0.));
#460=DIRECTION('ref_axis',(0.,0.,-1.));
#461=DIRECTION('center_axis',(0.,-1.,0.));
#462=DIRECTION('ref_axis',(1.,0.,0.));
#463=DIRECTION('center_axis',(0.,-1.,0.));
#464=DIRECTION('ref_axis',(0.,0.,-1.));
#465=DIRECTION('center_axis',(0.,-1.,0.));
#466=DIRECTION('ref_axis',(1.,0.,0.));
#467=DIRECTION('center_axis',(0.,-1.,0.));
#468=DIRECTION('ref_axis',(0.,0.,-1.));
#469=DIRECTION('center_axis',(0.,-1.,0.));
#470=DIRECTION('ref_axis',(1.,0.,0.));
#471=DIRECTION('center_axis',(0.,-1.,0.));
#472=DIRECTION('ref_axis',(1.,0.,0.));
#473=DIRECTION('center_axis',(0.,-1.,0.));
#474=DIRECTION('ref_axis',(1.,0.,0.));
#475=DIRECTION('center_axis',(0.,-1.,0.));
#476=DIRECTION('ref_axis',(1.,0.,0.));
#477=DIRECTION('center_axis',(0.,-1.,0.));
#478=DIRECTION('ref_axis',(0.,0.,-1.));
#479=DIRECTION('center_axis',(0.,-1.,0.));
#480=DIRECTION('ref_axis',(1.,0.,0.));
#481=DIRECTION('center_axis',(0.,-1.,0.));
#482=DIRECTION('ref_axis',(0.,0.,-1.));
#483=DIRECTION('center_axis',(0.,-1.,0.));
#484=DIRECTION('ref_axis',(1.,0.,0.));
#485=DIRECTION('center_axis',(0.,-1.,0.));
#486=DIRECTION('ref_axis',(1.,0.,0.));
#487=DIRECTION('center_axis',(0.,-1.,0.));
#488=DIRECTION('ref_axis',(1.,0.,0.));
#489=DIRECTION('center_axis',(0.,-1.,0.));
#490=DIRECTION('ref_axis',(0.,0.,-1.));
#491=DIRECTION('center_axis',(0.,-1.,0.));
#492=DIRECTION('ref_axis',(0.,0.,-1.));
#493=CARTESIAN_POINT('',(0.,0.,0.));
#494=CARTESIAN_POINT('Origin',(0.,2998.38578643763,0.));
#495=CARTESIAN_POINT('',(40.65,2998.38578643763,0.));
#496=CARTESIAN_POINT('Origin',(0.,2998.38578643763,0.));
#497=CARTESIAN_POINT('',(40.9428932188134,2999.09289321881,-1.00281166256503E-14));
#498=CARTESIAN_POINT('Origin',(0.,2999.09289321881,-5.01405831282517E-15));
#499=CARTESIAN_POINT('Origin',(0.,2998.15086219714,0.));
#500=CARTESIAN_POINT('',(40.65,0.,0.));
#501=CARTESIAN_POINT('Origin',(0.,0.,0.));
#502=CARTESIAN_POINT('Origin',(0.,3000.95355339059,0.));
#503=CARTESIAN_POINT('',(44.9571067811866,3003.10710678119,0.));
#504=CARTESIAN_POINT('Origin',(0.,3003.10710678119,0.));
#505=CARTESIAN_POINT('Origin',(0.,2997.0875108319,0.));
#506=CARTESIAN_POINT('',(45.4428932188135,2997.79461761308,0.));
#507=CARTESIAN_POINT('Origin',(0.,2997.79461761308,-5.5651493724415E-15));
#508=CARTESIAN_POINT('',(45.15,2997.0875108319,-1.10585605963006E-14));
#509=CARTESIAN_POINT('Origin',(0.,2997.0875108319,0.));
#510=CARTESIAN_POINT('Origin',(0.,1502.25086219714,0.));
#511=CARTESIAN_POINT('',(45.15,7.,0.));
#512=CARTESIAN_POINT('Origin',(0.,6.99999999999989,0.));
#513=CARTESIAN_POINT('Origin',(0.,2999.45527778486,0.));
#514=CARTESIAN_POINT('',(49.0571067811866,3001.40883117546,0.));
#515=CARTESIAN_POINT('Origin',(0.,3001.40883117546,0.));
#516=CARTESIAN_POINT('Origin',(0.,6.99999999999989,0.));
#517=CARTESIAN_POINT('',(42.896794344809,0.,0.));
#518=CARTESIAN_POINT('Origin',(0.,0.,0.));
#519=CARTESIAN_POINT('Origin',(40.65,0.,0.));
#520=CARTESIAN_POINT('Origin',(0.,3029.38552299731,0.));
#521=CARTESIAN_POINT('',(45.25,3003.81421356237,0.));
#522=CARTESIAN_POINT('Origin',(0.,3003.81421356237,0.));
#523=CARTESIAN_POINT('',(45.25,3036.26932160034,0.));
#524=CARTESIAN_POINT('Origin',(0.,3036.26932160034,0.));
#525=CARTESIAN_POINT('Origin',(0.,3036.26932160034,0.));
#526=CARTESIAN_POINT('',(46.1628442572523,3037.26551629844,0.));
#527=CARTESIAN_POINT('Origin',(0.,3037.26551629844,0.));
#528=CARTESIAN_POINT('Origin',(0.,3037.4,0.));
#529=CARTESIAN_POINT('',(49.2371557427477,3037.53448370156,0.));
#530=CARTESIAN_POINT('Origin',(0.,3037.53448370156,0.));
#531=CARTESIAN_POINT('Origin',(0.,3038.53067839966,0.));
#532=CARTESIAN_POINT('',(50.15,3038.53067839966,0.));
#533=CARTESIAN_POINT('Origin',(0.,3038.53067839966,0.));
#534=CARTESIAN_POINT('Origin',(0.,3042.12978883287,0.));
#535=CARTESIAN_POINT('',(50.15,3045.72889926609,0.));
#536=CARTESIAN_POINT('Origin',(0.,3045.72889926609,0.));
#537=CARTESIAN_POINT('Origin',(0.,3045.72889926609,0.));
#538=CARTESIAN_POINT('',(49.3236481776669,3046.7137070191,0.));
#539=CARTESIAN_POINT('Origin',(0.,3046.7137070191,0.));
#540=CARTESIAN_POINT('Origin',(0.,3047.,0.));
#541=CARTESIAN_POINT('',(46.0763518223331,3047.2862929809,0.));
#542=CARTESIAN_POINT('Origin',(0.,3047.2862929809,0.));
#543=CARTESIAN_POINT('Origin',(0.,3048.27110073391,0.));
#544=CARTESIAN_POINT('',(45.25,3048.27110073391,0.));
#545=CARTESIAN_POINT('Origin',(0.,3048.27110073391,0.));
#546=CARTESIAN_POINT('Origin',(0.,3051.63555036696,0.));
#547=CARTESIAN_POINT('',(45.25,3055.,0.));
#548=CARTESIAN_POINT('Origin',(0.,3055.,0.));
#549=CARTESIAN_POINT('Origin',(0.,3055.,0.));
#550=CARTESIAN_POINT('',(46.25,3056.,0.));
#551=CARTESIAN_POINT('Origin',(0.,3056.,0.));
#552=CARTESIAN_POINT('Origin',(0.,3052.5,0.));
#553=CARTESIAN_POINT('',(49.7165989766271,3052.98238110996,0.));
#554=CARTESIAN_POINT('Origin',(0.,3052.98238110996,0.));
#555=CARTESIAN_POINT('Origin',(0.,3053.67149698134,0.));
#556=CARTESIAN_POINT('',(51.4427560925951,3049.85153576425,0.));
#557=CARTESIAN_POINT('Origin',(0.,3049.85153576425,0.));
#558=CARTESIAN_POINT('Origin',(0.,3046.03157454716,0.));
#559=CARTESIAN_POINT('',(53.1441569902036,3046.87978883287,0.));
#560=CARTESIAN_POINT('',(0.,3046.87978883287,53.1441569902035));
#561=CARTESIAN_POINT('Origin',(0.,3046.87978883287,0.));
#562=CARTESIAN_POINT('Origin',(0.,3046.87978883287,0.));
#563=CARTESIAN_POINT('Ctrl Pts',(0.,3046.87978883287,53.1441569902035));
#564=CARTESIAN_POINT('Ctrl Pts',(-53.1441569902035,3046.87978883287,53.1441569902035));
#565=CARTESIAN_POINT('Ctrl Pts',(-53.1441569902035,3046.87978883287,0.));
#566=CARTESIAN_POINT('Ctrl Pts',(-53.1441569902035,3046.87978883287,-53.1441569902035));
#567=CARTESIAN_POINT('Ctrl Pts',(0.,3046.87978883287,-53.1441569902035));
#568=CARTESIAN_POINT('Ctrl Pts',(53.1441569902035,3046.87978883287,-53.1441569902035));
#569=CARTESIAN_POINT('Ctrl Pts',(53.1441569902035,3046.87978883287,0.));
#570=CARTESIAN_POINT('Ctrl Pts',(53.1441569902035,3046.87978883287,53.1441569902035));
#571=CARTESIAN_POINT('Ctrl Pts',(0.,3046.87978883287,53.1441569902035));
#572=CARTESIAN_POINT('Ctrl Pts',(0.,3042.12978883287,53.961811974482));
#573=CARTESIAN_POINT('Ctrl Pts',(-53.961811974482,3042.12978883287,53.961811974482));
#574=CARTESIAN_POINT('Ctrl Pts',(-53.961811974482,3042.12978883287,0.));
#575=CARTESIAN_POINT('Ctrl Pts',(-53.961811974482,3042.12978883287,-53.961811974482));
#576=CARTESIAN_POINT('Ctrl Pts',(0.,3042.12978883287,-53.961811974482));
#577=CARTESIAN_POINT('Ctrl Pts',(53.961811974482,3042.12978883287,-53.961811974482));
#578=CARTESIAN_POINT('Ctrl Pts',(53.961811974482,3042.12978883287,0.));
#579=CARTESIAN_POINT('Ctrl Pts',(53.961811974482,3042.12978883287,53.961811974482));
#580=CARTESIAN_POINT('Ctrl Pts',(0.,3042.12978883287,53.961811974482));
#581=CARTESIAN_POINT('Ctrl Pts',(0.,3037.37978883287,53.1441569902035));
#582=CARTESIAN_POINT('Ctrl Pts',(-53.1441569902035,3037.37978883287,53.1441569902035));
#583=CARTESIAN_POINT('Ctrl Pts',(-53.1441569902035,3037.37978883287,0.));
#584=CARTESIAN_POINT('Ctrl Pts',(-53.1441569902035,3037.37978883287,-53.1441569902035));
#585=CARTESIAN_POINT('Ctrl Pts',(0.,3037.37978883287,-53.1441569902035));
#586=CARTESIAN_POINT('Ctrl Pts',(53.1441569902035,3037.37978883287,-53.1441569902035));
#587=CARTESIAN_POINT('Ctrl Pts',(53.1441569902035,3037.37978883287,0.));
#588=CARTESIAN_POINT('Ctrl Pts',(53.1441569902035,3037.37978883287,53.1441569902035));
#589=CARTESIAN_POINT('Ctrl Pts',(0.,3037.37978883287,53.1441569902035));
#590=CARTESIAN_POINT('',(53.1441569902036,3037.37978883287,0.));
#591=CARTESIAN_POINT('',(0.,3037.37978883287,53.1441569902035));
#592=CARTESIAN_POINT('Origin',(0.,3037.37978883287,0.));
#593=CARTESIAN_POINT('Origin',(0.,3037.37978883287,0.));
#594=CARTESIAN_POINT('Ctrl Pts',(0.,3037.37978883287,53.1441569902035));
#595=CARTESIAN_POINT('Ctrl Pts',(0.,3042.12978883287,53.961811974482));
#596=CARTESIAN_POINT('Ctrl Pts',(0.,3046.87978883287,53.1441569902035));
#597=CARTESIAN_POINT('Origin',(0.,3038.22800311859,0.));
#598=CARTESIAN_POINT('',(51.2833144781193,3034.278896902,0.));
#599=CARTESIAN_POINT('Origin',(0.,3034.278896902,0.));
#600=CARTESIAN_POINT('Origin',(0.,3030.32979068541,0.));
#601=CARTESIAN_POINT('',(49.35,3030.32979068541,0.));
#602=CARTESIAN_POINT('Origin',(0.,3030.32979068541,0.));
#603=CARTESIAN_POINT('Origin',(0.,3007.73488049493,0.));
#604=CARTESIAN_POINT('',(49.35,3002.11593795664,0.));
#605=CARTESIAN_POINT('Origin',(0.,3002.11593795664,0.));
#606=CARTESIAN_POINT('Origin',(0.,3002.11593795664,0.));
#607=CARTESIAN_POINT('Origin',(0.,3003.81421356237,0.));
#608=UNCERTAINTY_MEASURE_WITH_UNIT(LENGTH_MEASURE(0.01),#612,
'DISTANCE_ACCURACY_VALUE',
'Maximum model space distance between geometric entities at asserted c
onnectivities');
#609=UNCERTAINTY_MEASURE_WITH_UNIT(LENGTH_MEASURE(1.E-6),#612,
'DISTANCE_ACCURACY_VALUE',
'Maximum model space distance between geometric entities at asserted c
onnectivities');
#610=(
GEOMETRIC_REPRESENTATION_CONTEXT(3)
GLOBAL_UNCERTAINTY_ASSIGNED_CONTEXT((#608))
GLOBAL_UNIT_ASSIGNED_CONTEXT((#612,#615,#613))
REPRESENTATION_CONTEXT('','3D')
);
#611=(
GEOMETRIC_REPRESENTATION_CONTEXT(3)
GLOBAL_UNCERTAINTY_ASSIGNED_CONTEXT((#609))
GLOBAL_UNIT_ASSIGNED_CONTEXT((#612,#615,#613))
REPRESENTATION_CONTEXT('','3D')
);
#612=(
LENGTH_UNIT()
NAMED_UNIT(*)
SI_UNIT(.MILLI.,.METRE.)
);
#613=(
NAMED_UNIT(*)
SI_UNIT($,.STERADIAN.)
SOLID_ANGLE_UNIT()
);
#614=DIMENSIONAL_EXPONENTS(0.,0.,0.,0.,0.,0.,0.);
#615=(
CONVERSION_BASED_UNIT('degree',#617)
NAMED_UNIT(#614)
PLANE_ANGLE_UNIT()
);
#616=(
NAMED_UNIT(*)
PLANE_ANGLE_UNIT()
SI_UNIT($,.RADIAN.)
);
#617=PLANE_ANGLE_MEASURE_WITH_UNIT(PLANE_ANGLE_MEASURE(0.01745329252),#616);
#618=SHAPE_DEFINITION_REPRESENTATION(#619,#620);
#619=PRODUCT_DEFINITION_SHAPE('',$,#622);
#620=SHAPE_REPRESENTATION('',(#325),#610);
#621=PRODUCT_DEFINITION_CONTEXT('part definition',#626,'design');
#622=PRODUCT_DEFINITION('334070 SKOLANsafeEM Passl\X\E4ngen DN_OD 90x3
000','334070 SKOLANsafeEM Passl\X\E4ngen DN_OD 90x3000',#623,#621);
#623=PRODUCT_DEFINITION_FORMATION('',$,#628);
#624=PRODUCT_RELATED_PRODUCT_CATEGORY(
'334070 SKOLANsafeEM Passl\X\E4ngen DN_OD 90x3000',
'334070 SKOLANsafeEM Passl\X\E4ngen DN_OD 90x3000',(#628));
#625=APPLICATION_PROTOCOL_DEFINITION('international standard',
'automotive_design',2009,#626);
#626=APPLICATION_CONTEXT(
'Core Data for Automotive Mechanical Design Process');
#627=PRODUCT_CONTEXT('part definition',#626,'mechanical');
#628=PRODUCT('334070 SKOLANsafeEM Passl\X\E4ngen DN_OD 90x3000',
'334070 SKOLANsafeEM Passl\X\E4ngen DN_OD 90x3000',$,(#627));
#629=PRESENTATION_STYLE_ASSIGNMENT((#630));
#630=SURFACE_STYLE_USAGE(.BOTH.,#631);
#631=SURFACE_SIDE_STYLE('',(#632));
#632=SURFACE_STYLE_FILL_AREA(#633);
#633=FILL_AREA_STYLE('',(#634));
#634=FILL_AREA_STYLE_COLOUR('',#635);
#635=COLOUR_RGB('',0.749019607843137,0.749019607843137,0.749019607843137);
ENDSEC;
END-ISO-10303-21;
