ISO-10303-21;
HEADER;
/* Generated by software containing ST-Developer
 * from STEP Tools, Inc. (www.steptools.com) 
 */

FILE_DESCRIPTION(
/* description */ (''),
/* implementation_level */ '2;1');

FILE_NAME(
/* name */ 
'Y:\\ACad-Dateien\\Ostendorf\\Skolan Safe\\Kundenzeichnung\\334000 SKO
LANsafeEM Passl\X\E4ngen DN_OD 90x150.stp',
/* time_stamp */ '2018-01-09T14:47:50+01:00',
/* author */ ('user1'),
/* organization */ (''),
/* preprocessor_version */ 'ST-DEVELOPER v16.1',
/* originating_system */ 'Autodesk Inventor 2016',
/* authorisation */ '');

FILE_SCHEMA (('AUTOMOTIVE_DESIGN { 1 0 10303 214 3 1 1 }'));
ENDSEC;

DATA;
#10=MECHANICAL_DESIGN_GEOMETRIC_PRESENTATION_REPRESENTATION('',(#13),#583);
#11=SHAPE_REPRESENTATION_RELATIONSHIP('SRR','None',#592,#12);
#12=ADVANCED_BREP_SHAPE_REPRESENTATION('',(#14),#582);
#13=STYLED_ITEM('',(#601),#14);
#14=MANIFOLD_SOLID_BREP('Volumenk\X\F6rper1',#323);
#15=PLANE('',#334);
#16=PLANE('',#341);
#17=PLANE('',#349);
#18=PLANE('',#366);
#19=PLANE('',#374);
#20=PLANE('',#380);
#21=CONICAL_SURFACE('',#330,47.3664814565723,14.9999999999999);
#22=CONICAL_SURFACE('',#358,42.8664814565723,14.9999999999999);
#23=CYLINDRICAL_SURFACE('',#328,45.);
#24=CYLINDRICAL_SURFACE('',#336,50.);
#25=CYLINDRICAL_SURFACE('',#345,54.5);
#26=CYLINDRICAL_SURFACE('',#353,49.75);
#27=CYLINDRICAL_SURFACE('',#356,40.5);
#28=CYLINDRICAL_SURFACE('',#362,45.25);
#29=CYLINDRICAL_SURFACE('',#370,50.15);
#30=CYLINDRICAL_SURFACE('',#378,45.5);
#31=FACE_BOUND('',#88,.T.);
#32=FACE_BOUND('',#90,.T.);
#33=FACE_BOUND('',#92,.T.);
#34=FACE_BOUND('',#94,.T.);
#35=FACE_BOUND('',#96,.T.);
#36=FACE_BOUND('',#98,.T.);
#37=FACE_BOUND('',#100,.T.);
#38=FACE_BOUND('',#102,.T.);
#39=FACE_BOUND('',#104,.T.);
#40=FACE_BOUND('',#106,.T.);
#41=FACE_BOUND('',#108,.T.);
#42=FACE_BOUND('',#110,.T.);
#43=FACE_BOUND('',#112,.T.);
#44=FACE_BOUND('',#114,.T.);
#45=FACE_BOUND('',#116,.T.);
#46=FACE_BOUND('',#118,.T.);
#47=FACE_BOUND('',#120,.T.);
#48=FACE_BOUND('',#122,.T.);
#49=FACE_BOUND('',#124,.T.);
#50=FACE_BOUND('',#126,.T.);
#51=FACE_BOUND('',#128,.T.);
#52=FACE_BOUND('',#130,.T.);
#53=FACE_BOUND('',#132,.T.);
#54=FACE_BOUND('',#134,.T.);
#55=FACE_BOUND('',#136,.T.);
#56=FACE_BOUND('',#138,.T.);
#57=FACE_BOUND('',#140,.T.);
#58=FACE_BOUND('',#142,.T.);
#59=FACE_OUTER_BOUND('',#87,.T.);
#60=FACE_OUTER_BOUND('',#89,.T.);
#61=FACE_OUTER_BOUND('',#91,.T.);
#62=FACE_OUTER_BOUND('',#93,.T.);
#63=FACE_OUTER_BOUND('',#95,.T.);
#64=FACE_OUTER_BOUND('',#97,.T.);
#65=FACE_OUTER_BOUND('',#99,.T.);
#66=FACE_OUTER_BOUND('',#101,.T.);
#67=FACE_OUTER_BOUND('',#103,.T.);
#68=FACE_OUTER_BOUND('',#105,.T.);
#69=FACE_OUTER_BOUND('',#107,.T.);
#70=FACE_OUTER_BOUND('',#109,.T.);
#71=FACE_OUTER_BOUND('',#111,.T.);
#72=FACE_OUTER_BOUND('',#113,.T.);
#73=FACE_OUTER_BOUND('',#115,.T.);
#74=FACE_OUTER_BOUND('',#117,.T.);
#75=FACE_OUTER_BOUND('',#119,.T.);
#76=FACE_OUTER_BOUND('',#121,.T.);
#77=FACE_OUTER_BOUND('',#123,.T.);
#78=FACE_OUTER_BOUND('',#125,.T.);
#79=FACE_OUTER_BOUND('',#127,.T.);
#80=FACE_OUTER_BOUND('',#129,.T.);
#81=FACE_OUTER_BOUND('',#131,.T.);
#82=FACE_OUTER_BOUND('',#133,.T.);
#83=FACE_OUTER_BOUND('',#135,.T.);
#84=FACE_OUTER_BOUND('',#137,.T.);
#85=FACE_OUTER_BOUND('',#139,.T.);
#86=FACE_OUTER_BOUND('',#141,.T.);
#87=EDGE_LOOP('',(#227));
#88=EDGE_LOOP('',(#228));
#89=EDGE_LOOP('',(#229));
#90=EDGE_LOOP('',(#230));
#91=EDGE_LOOP('',(#231));
#92=EDGE_LOOP('',(#232));
#93=EDGE_LOOP('',(#233));
#94=EDGE_LOOP('',(#234));
#95=EDGE_LOOP('',(#235));
#96=EDGE_LOOP('',(#236));
#97=EDGE_LOOP('',(#237));
#98=EDGE_LOOP('',(#238));
#99=EDGE_LOOP('',(#239));
#100=EDGE_LOOP('',(#240));
#101=EDGE_LOOP('',(#241));
#102=EDGE_LOOP('',(#242));
#103=EDGE_LOOP('',(#243));
#104=EDGE_LOOP('',(#244));
#105=EDGE_LOOP('',(#245));
#106=EDGE_LOOP('',(#246));
#107=EDGE_LOOP('',(#247));
#108=EDGE_LOOP('',(#248));
#109=EDGE_LOOP('',(#249));
#110=EDGE_LOOP('',(#250));
#111=EDGE_LOOP('',(#251));
#112=EDGE_LOOP('',(#252));
#113=EDGE_LOOP('',(#253));
#114=EDGE_LOOP('',(#254));
#115=EDGE_LOOP('',(#255));
#116=EDGE_LOOP('',(#256));
#117=EDGE_LOOP('',(#257));
#118=EDGE_LOOP('',(#258));
#119=EDGE_LOOP('',(#259));
#120=EDGE_LOOP('',(#260));
#121=EDGE_LOOP('',(#261));
#122=EDGE_LOOP('',(#262));
#123=EDGE_LOOP('',(#263));
#124=EDGE_LOOP('',(#264));
#125=EDGE_LOOP('',(#265));
#126=EDGE_LOOP('',(#266));
#127=EDGE_LOOP('',(#267));
#128=EDGE_LOOP('',(#268));
#129=EDGE_LOOP('',(#269));
#130=EDGE_LOOP('',(#270));
#131=EDGE_LOOP('',(#271));
#132=EDGE_LOOP('',(#272));
#133=EDGE_LOOP('',(#273));
#134=EDGE_LOOP('',(#274));
#135=EDGE_LOOP('',(#275));
#136=EDGE_LOOP('',(#276));
#137=EDGE_LOOP('',(#277));
#138=EDGE_LOOP('',(#278));
#139=EDGE_LOOP('',(#279));
#140=EDGE_LOOP('',(#280));
#141=EDGE_LOOP('',(#281));
#142=EDGE_LOOP('',(#282));
#143=CIRCLE('',#326,45.0340741737109);
#144=CIRCLE('',#327,45.);
#145=CIRCLE('',#329,45.);
#146=CIRCLE('',#331,49.7329629131445);
#147=CIRCLE('',#333,42.746794344809);
#148=CIRCLE('',#335,40.5);
#149=CIRCLE('',#337,50.);
#150=CIRCLE('',#338,50.);
#151=CIRCLE('',#340,50.5);
#152=CIRCLE('',#342,52.5);
#153=CIRCLE('',#344,54.5);
#154=CIRCLE('',#346,54.5);
#155=CIRCLE('',#348,52.5);
#156=CIRCLE('',#350,50.25);
#157=CIRCLE('',#352,49.75);
#158=CIRCLE('',#354,49.75);
#159=CIRCLE('',#357,40.5);
#160=CIRCLE('',#359,45.2329629131445);
#161=CIRCLE('',#361,45.25);
#162=CIRCLE('',#363,45.25);
#163=CIRCLE('',#365,48.25);
#164=CIRCLE('',#367,49.65);
#165=CIRCLE('',#369,50.15);
#166=CIRCLE('',#371,50.15);
#167=CIRCLE('',#373,49.65);
#168=CIRCLE('',#375,48.5);
#169=CIRCLE('',#377,45.5);
#170=CIRCLE('',#379,45.5);
#171=VERTEX_POINT('',#497);
#172=VERTEX_POINT('',#499);
#173=VERTEX_POINT('',#502);
#174=VERTEX_POINT('',#505);
#175=VERTEX_POINT('',#508);
#176=VERTEX_POINT('',#511);
#177=VERTEX_POINT('',#514);
#178=VERTEX_POINT('',#516);
#179=VERTEX_POINT('',#519);
#180=VERTEX_POINT('',#522);
#181=VERTEX_POINT('',#525);
#182=VERTEX_POINT('',#528);
#183=VERTEX_POINT('',#531);
#184=VERTEX_POINT('',#534);
#185=VERTEX_POINT('',#537);
#186=VERTEX_POINT('',#540);
#187=VERTEX_POINT('',#544);
#188=VERTEX_POINT('',#547);
#189=VERTEX_POINT('',#550);
#190=VERTEX_POINT('',#553);
#191=VERTEX_POINT('',#556);
#192=VERTEX_POINT('',#559);
#193=VERTEX_POINT('',#562);
#194=VERTEX_POINT('',#565);
#195=VERTEX_POINT('',#568);
#196=VERTEX_POINT('',#571);
#197=VERTEX_POINT('',#574);
#198=VERTEX_POINT('',#577);
#199=EDGE_CURVE('',#171,#171,#143,.T.);
#200=EDGE_CURVE('',#172,#172,#144,.T.);
#201=EDGE_CURVE('',#173,#173,#145,.T.);
#202=EDGE_CURVE('',#174,#174,#146,.T.);
#203=EDGE_CURVE('',#175,#175,#147,.T.);
#204=EDGE_CURVE('',#176,#176,#148,.T.);
#205=EDGE_CURVE('',#177,#177,#149,.T.);
#206=EDGE_CURVE('',#178,#178,#150,.T.);
#207=EDGE_CURVE('',#179,#179,#151,.T.);
#208=EDGE_CURVE('',#180,#180,#152,.T.);
#209=EDGE_CURVE('',#181,#181,#153,.T.);
#210=EDGE_CURVE('',#182,#182,#154,.T.);
#211=EDGE_CURVE('',#183,#183,#155,.T.);
#212=EDGE_CURVE('',#184,#184,#156,.T.);
#213=EDGE_CURVE('',#185,#185,#157,.T.);
#214=EDGE_CURVE('',#186,#186,#158,.T.);
#215=EDGE_CURVE('',#187,#187,#159,.T.);
#216=EDGE_CURVE('',#188,#188,#160,.T.);
#217=EDGE_CURVE('',#189,#189,#161,.T.);
#218=EDGE_CURVE('',#190,#190,#162,.T.);
#219=EDGE_CURVE('',#191,#191,#163,.T.);
#220=EDGE_CURVE('',#192,#192,#164,.T.);
#221=EDGE_CURVE('',#193,#193,#165,.T.);
#222=EDGE_CURVE('',#194,#194,#166,.T.);
#223=EDGE_CURVE('',#195,#195,#167,.T.);
#224=EDGE_CURVE('',#196,#196,#168,.T.);
#225=EDGE_CURVE('',#197,#197,#169,.T.);
#226=EDGE_CURVE('',#198,#198,#170,.T.);
#227=ORIENTED_EDGE('',*,*,#199,.T.);
#228=ORIENTED_EDGE('',*,*,#200,.T.);
#229=ORIENTED_EDGE('',*,*,#201,.F.);
#230=ORIENTED_EDGE('',*,*,#200,.F.);
#231=ORIENTED_EDGE('',*,*,#202,.T.);
#232=ORIENTED_EDGE('',*,*,#199,.F.);
#233=ORIENTED_EDGE('',*,*,#201,.T.);
#234=ORIENTED_EDGE('',*,*,#203,.F.);
#235=ORIENTED_EDGE('',*,*,#203,.T.);
#236=ORIENTED_EDGE('',*,*,#204,.F.);
#237=ORIENTED_EDGE('',*,*,#205,.T.);
#238=ORIENTED_EDGE('',*,*,#206,.F.);
#239=ORIENTED_EDGE('',*,*,#206,.T.);
#240=ORIENTED_EDGE('',*,*,#207,.F.);
#241=ORIENTED_EDGE('',*,*,#208,.F.);
#242=ORIENTED_EDGE('',*,*,#207,.T.);
#243=ORIENTED_EDGE('',*,*,#208,.T.);
#244=ORIENTED_EDGE('',*,*,#209,.F.);
#245=ORIENTED_EDGE('',*,*,#209,.T.);
#246=ORIENTED_EDGE('',*,*,#210,.F.);
#247=ORIENTED_EDGE('',*,*,#210,.T.);
#248=ORIENTED_EDGE('',*,*,#211,.F.);
#249=ORIENTED_EDGE('',*,*,#211,.T.);
#250=ORIENTED_EDGE('',*,*,#212,.F.);
#251=ORIENTED_EDGE('',*,*,#212,.T.);
#252=ORIENTED_EDGE('',*,*,#213,.F.);
#253=ORIENTED_EDGE('',*,*,#213,.T.);
#254=ORIENTED_EDGE('',*,*,#214,.F.);
#255=ORIENTED_EDGE('',*,*,#214,.T.);
#256=ORIENTED_EDGE('',*,*,#202,.F.);
#257=ORIENTED_EDGE('',*,*,#204,.T.);
#258=ORIENTED_EDGE('',*,*,#215,.F.);
#259=ORIENTED_EDGE('',*,*,#215,.T.);
#260=ORIENTED_EDGE('',*,*,#216,.F.);
#261=ORIENTED_EDGE('',*,*,#216,.T.);
#262=ORIENTED_EDGE('',*,*,#217,.F.);
#263=ORIENTED_EDGE('',*,*,#217,.T.);
#264=ORIENTED_EDGE('',*,*,#218,.F.);
#265=ORIENTED_EDGE('',*,*,#218,.T.);
#266=ORIENTED_EDGE('',*,*,#219,.F.);
#267=ORIENTED_EDGE('',*,*,#220,.F.);
#268=ORIENTED_EDGE('',*,*,#219,.T.);
#269=ORIENTED_EDGE('',*,*,#220,.T.);
#270=ORIENTED_EDGE('',*,*,#221,.F.);
#271=ORIENTED_EDGE('',*,*,#221,.T.);
#272=ORIENTED_EDGE('',*,*,#222,.F.);
#273=ORIENTED_EDGE('',*,*,#222,.T.);
#274=ORIENTED_EDGE('',*,*,#223,.F.);
#275=ORIENTED_EDGE('',*,*,#223,.T.);
#276=ORIENTED_EDGE('',*,*,#224,.F.);
#277=ORIENTED_EDGE('',*,*,#224,.T.);
#278=ORIENTED_EDGE('',*,*,#225,.F.);
#279=ORIENTED_EDGE('',*,*,#225,.T.);
#280=ORIENTED_EDGE('',*,*,#226,.F.);
#281=ORIENTED_EDGE('',*,*,#205,.F.);
#282=ORIENTED_EDGE('',*,*,#226,.T.);
#283=TOROIDAL_SURFACE('',#325,46.,1.);
#284=TOROIDAL_SURFACE('',#332,33.,12.);
#285=TOROIDAL_SURFACE('',#339,50.5,0.499999999999998);
#286=TOROIDAL_SURFACE('',#343,52.5,2.00000000000002);
#287=TOROIDAL_SURFACE('',#347,52.5,2.00000000000002);
#288=TOROIDAL_SURFACE('',#351,50.25,0.499999999999998);
#289=TOROIDAL_SURFACE('',#355,49.25,0.5);
#290=TOROIDAL_SURFACE('',#360,44.75,0.5);
#291=TOROIDAL_SURFACE('',#364,48.25,2.99999999999998);
#292=TOROIDAL_SURFACE('',#368,49.65,0.499999999999998);
#293=TOROIDAL_SURFACE('',#372,49.65,0.499999999999998);
#294=TOROIDAL_SURFACE('',#376,48.5,2.99999999999997);
#295=ADVANCED_FACE('',(#59,#31),#283,.F.);
#296=ADVANCED_FACE('',(#60,#32),#23,.T.);
#297=ADVANCED_FACE('',(#61,#33),#21,.T.);
#298=ADVANCED_FACE('',(#62,#34),#284,.T.);
#299=ADVANCED_FACE('',(#63,#35),#15,.T.);
#300=ADVANCED_FACE('',(#64,#36),#24,.T.);
#301=ADVANCED_FACE('',(#65,#37),#285,.F.);
#302=ADVANCED_FACE('',(#66,#38),#16,.T.);
#303=ADVANCED_FACE('',(#67,#39),#286,.T.);
#304=ADVANCED_FACE('',(#68,#40),#25,.T.);
#305=ADVANCED_FACE('',(#69,#41),#287,.T.);
#306=ADVANCED_FACE('',(#70,#42),#17,.T.);
#307=ADVANCED_FACE('',(#71,#43),#288,.F.);
#308=ADVANCED_FACE('',(#72,#44),#26,.T.);
#309=ADVANCED_FACE('',(#73,#45),#289,.T.);
#310=ADVANCED_FACE('',(#74,#46),#27,.F.);
#311=ADVANCED_FACE('',(#75,#47),#22,.F.);
#312=ADVANCED_FACE('',(#76,#48),#290,.F.);
#313=ADVANCED_FACE('',(#77,#49),#28,.F.);
#314=ADVANCED_FACE('',(#78,#50),#291,.T.);
#315=ADVANCED_FACE('',(#79,#51),#18,.T.);
#316=ADVANCED_FACE('',(#80,#52),#292,.F.);
#317=ADVANCED_FACE('',(#81,#53),#29,.F.);
#318=ADVANCED_FACE('',(#82,#54),#293,.F.);
#319=ADVANCED_FACE('',(#83,#55),#19,.T.);
#320=ADVANCED_FACE('',(#84,#56),#294,.T.);
#321=ADVANCED_FACE('',(#85,#57),#30,.F.);
#322=ADVANCED_FACE('',(#86,#58),#20,.T.);
#323=CLOSED_SHELL('',(#295,#296,#297,#298,#299,#300,#301,#302,#303,#304,
#305,#306,#307,#308,#309,#310,#311,#312,#313,#314,#315,#316,#317,#318,#319,
#320,#321,#322));
#324=AXIS2_PLACEMENT_3D('placement',#495,#381,#382);
#325=AXIS2_PLACEMENT_3D('',#496,#383,#384);
#326=AXIS2_PLACEMENT_3D('',#498,#385,#386);
#327=AXIS2_PLACEMENT_3D('',#500,#387,#388);
#328=AXIS2_PLACEMENT_3D('',#501,#389,#390);
#329=AXIS2_PLACEMENT_3D('',#503,#391,#392);
#330=AXIS2_PLACEMENT_3D('',#504,#393,#394);
#331=AXIS2_PLACEMENT_3D('',#506,#395,#396);
#332=AXIS2_PLACEMENT_3D('',#507,#397,#398);
#333=AXIS2_PLACEMENT_3D('',#509,#399,#400);
#334=AXIS2_PLACEMENT_3D('',#510,#401,#402);
#335=AXIS2_PLACEMENT_3D('',#512,#403,#404);
#336=AXIS2_PLACEMENT_3D('',#513,#405,#406);
#337=AXIS2_PLACEMENT_3D('',#515,#407,#408);
#338=AXIS2_PLACEMENT_3D('',#517,#409,#410);
#339=AXIS2_PLACEMENT_3D('',#518,#411,#412);
#340=AXIS2_PLACEMENT_3D('',#520,#413,#414);
#341=AXIS2_PLACEMENT_3D('',#521,#415,#416);
#342=AXIS2_PLACEMENT_3D('',#523,#417,#418);
#343=AXIS2_PLACEMENT_3D('',#524,#419,#420);
#344=AXIS2_PLACEMENT_3D('',#526,#421,#422);
#345=AXIS2_PLACEMENT_3D('',#527,#423,#424);
#346=AXIS2_PLACEMENT_3D('',#529,#425,#426);
#347=AXIS2_PLACEMENT_3D('',#530,#427,#428);
#348=AXIS2_PLACEMENT_3D('',#532,#429,#430);
#349=AXIS2_PLACEMENT_3D('',#533,#431,#432);
#350=AXIS2_PLACEMENT_3D('',#535,#433,#434);
#351=AXIS2_PLACEMENT_3D('',#536,#435,#436);
#352=AXIS2_PLACEMENT_3D('',#538,#437,#438);
#353=AXIS2_PLACEMENT_3D('',#539,#439,#440);
#354=AXIS2_PLACEMENT_3D('',#541,#441,#442);
#355=AXIS2_PLACEMENT_3D('',#542,#443,#444);
#356=AXIS2_PLACEMENT_3D('',#543,#445,#446);
#357=AXIS2_PLACEMENT_3D('',#545,#447,#448);
#358=AXIS2_PLACEMENT_3D('',#546,#449,#450);
#359=AXIS2_PLACEMENT_3D('',#548,#451,#452);
#360=AXIS2_PLACEMENT_3D('',#549,#453,#454);
#361=AXIS2_PLACEMENT_3D('',#551,#455,#456);
#362=AXIS2_PLACEMENT_3D('',#552,#457,#458);
#363=AXIS2_PLACEMENT_3D('',#554,#459,#460);
#364=AXIS2_PLACEMENT_3D('',#555,#461,#462);
#365=AXIS2_PLACEMENT_3D('',#557,#463,#464);
#366=AXIS2_PLACEMENT_3D('',#558,#465,#466);
#367=AXIS2_PLACEMENT_3D('',#560,#467,#468);
#368=AXIS2_PLACEMENT_3D('',#561,#469,#470);
#369=AXIS2_PLACEMENT_3D('',#563,#471,#472);
#370=AXIS2_PLACEMENT_3D('',#564,#473,#474);
#371=AXIS2_PLACEMENT_3D('',#566,#475,#476);
#372=AXIS2_PLACEMENT_3D('',#567,#477,#478);
#373=AXIS2_PLACEMENT_3D('',#569,#479,#480);
#374=AXIS2_PLACEMENT_3D('',#570,#481,#482);
#375=AXIS2_PLACEMENT_3D('',#572,#483,#484);
#376=AXIS2_PLACEMENT_3D('',#573,#485,#486);
#377=AXIS2_PLACEMENT_3D('',#575,#487,#488);
#378=AXIS2_PLACEMENT_3D('',#576,#489,#490);
#379=AXIS2_PLACEMENT_3D('',#578,#491,#492);
#380=AXIS2_PLACEMENT_3D('',#579,#493,#494);
#381=DIRECTION('axis',(0.,0.,1.));
#382=DIRECTION('refdir',(1.,0.,0.));
#383=DIRECTION('center_axis',(0.,-1.,0.));
#384=DIRECTION('ref_axis',(0.,0.,-1.));
#385=DIRECTION('center_axis',(0.,-1.,0.));
#386=DIRECTION('ref_axis',(-1.,0.,0.));
#387=DIRECTION('center_axis',(0.,1.,0.));
#388=DIRECTION('ref_axis',(-1.,0.,1.22464679914735E-16));
#389=DIRECTION('center_axis',(0.,-1.,0.));
#390=DIRECTION('ref_axis',(1.,0.,0.));
#391=DIRECTION('center_axis',(0.,-1.,0.));
#392=DIRECTION('ref_axis',(1.,0.,0.));
#393=DIRECTION('center_axis',(0.,1.,0.));
#394=DIRECTION('ref_axis',(1.,0.,0.));
#395=DIRECTION('center_axis',(0.,-1.,0.));
#396=DIRECTION('ref_axis',(1.,0.,0.));
#397=DIRECTION('center_axis',(0.,-1.,0.));
#398=DIRECTION('ref_axis',(0.,0.,-1.));
#399=DIRECTION('center_axis',(0.,-1.,0.));
#400=DIRECTION('ref_axis',(1.,0.,0.));
#401=DIRECTION('center_axis',(0.,-1.,0.));
#402=DIRECTION('ref_axis',(0.,0.,-1.));
#403=DIRECTION('center_axis',(0.,-1.,0.));
#404=DIRECTION('ref_axis',(1.,0.,0.));
#405=DIRECTION('center_axis',(0.,-1.,0.));
#406=DIRECTION('ref_axis',(1.,0.,0.));
#407=DIRECTION('center_axis',(0.,-1.,0.));
#408=DIRECTION('ref_axis',(1.,0.,0.));
#409=DIRECTION('center_axis',(0.,-1.,0.));
#410=DIRECTION('ref_axis',(1.,0.,0.));
#411=DIRECTION('center_axis',(0.,-1.,0.));
#412=DIRECTION('ref_axis',(0.,0.,-1.));
#413=DIRECTION('center_axis',(0.,-1.,0.));
#414=DIRECTION('ref_axis',(1.,0.,0.));
#415=DIRECTION('center_axis',(0.,1.,0.));
#416=DIRECTION('ref_axis',(0.,0.,1.));
#417=DIRECTION('center_axis',(0.,-1.,0.));
#418=DIRECTION('ref_axis',(1.,0.,0.));
#419=DIRECTION('center_axis',(0.,-1.,0.));
#420=DIRECTION('ref_axis',(0.,0.,-1.));
#421=DIRECTION('center_axis',(0.,-1.,0.));
#422=DIRECTION('ref_axis',(1.,0.,0.));
#423=DIRECTION('center_axis',(0.,-1.,0.));
#424=DIRECTION('ref_axis',(1.,0.,0.));
#425=DIRECTION('center_axis',(0.,-1.,0.));
#426=DIRECTION('ref_axis',(1.,0.,0.));
#427=DIRECTION('center_axis',(0.,-1.,0.));
#428=DIRECTION('ref_axis',(0.,0.,-1.));
#429=DIRECTION('center_axis',(0.,-1.,0.));
#430=DIRECTION('ref_axis',(1.,0.,0.));
#431=DIRECTION('center_axis',(0.,-1.,0.));
#432=DIRECTION('ref_axis',(0.,0.,-1.));
#433=DIRECTION('center_axis',(0.,-1.,0.));
#434=DIRECTION('ref_axis',(1.,0.,0.));
#435=DIRECTION('center_axis',(0.,-1.,0.));
#436=DIRECTION('ref_axis',(0.,0.,-1.));
#437=DIRECTION('center_axis',(0.,-1.,0.));
#438=DIRECTION('ref_axis',(1.,0.,0.));
#439=DIRECTION('center_axis',(0.,-1.,0.));
#440=DIRECTION('ref_axis',(1.,0.,0.));
#441=DIRECTION('center_axis',(0.,-1.,0.));
#442=DIRECTION('ref_axis',(1.,0.,0.));
#443=DIRECTION('center_axis',(0.,-1.,0.));
#444=DIRECTION('ref_axis',(0.,0.,-1.));
#445=DIRECTION('center_axis',(0.,-1.,0.));
#446=DIRECTION('ref_axis',(1.,0.,0.));
#447=DIRECTION('center_axis',(0.,-1.,0.));
#448=DIRECTION('ref_axis',(1.,0.,0.));
#449=DIRECTION('center_axis',(0.,1.,0.));
#450=DIRECTION('ref_axis',(1.,0.,0.));
#451=DIRECTION('center_axis',(0.,-1.,0.));
#452=DIRECTION('ref_axis',(1.,0.,0.));
#453=DIRECTION('center_axis',(0.,-1.,0.));
#454=DIRECTION('ref_axis',(0.,0.,-1.));
#455=DIRECTION('center_axis',(0.,-1.,0.));
#456=DIRECTION('ref_axis',(1.,0.,0.));
#457=DIRECTION('center_axis',(0.,-1.,0.));
#458=DIRECTION('ref_axis',(1.,0.,0.));
#459=DIRECTION('center_axis',(0.,-1.,0.));
#460=DIRECTION('ref_axis',(1.,0.,0.));
#461=DIRECTION('center_axis',(0.,-1.,0.));
#462=DIRECTION('ref_axis',(0.,0.,-1.));
#463=DIRECTION('center_axis',(0.,-1.,0.));
#464=DIRECTION('ref_axis',(1.,0.,0.));
#465=DIRECTION('center_axis',(0.,1.,0.));
#466=DIRECTION('ref_axis',(0.,0.,1.));
#467=DIRECTION('center_axis',(0.,-1.,0.));
#468=DIRECTION('ref_axis',(1.,0.,0.));
#469=DIRECTION('center_axis',(0.,-1.,0.));
#470=DIRECTION('ref_axis',(0.,0.,-1.));
#471=DIRECTION('center_axis',(0.,-1.,0.));
#472=DIRECTION('ref_axis',(1.,0.,0.));
#473=DIRECTION('center_axis',(0.,-1.,0.));
#474=DIRECTION('ref_axis',(1.,0.,0.));
#475=DIRECTION('center_axis',(0.,-1.,0.));
#476=DIRECTION('ref_axis',(1.,0.,0.));
#477=DIRECTION('center_axis',(0.,-1.,0.));
#478=DIRECTION('ref_axis',(0.,0.,-1.));
#479=DIRECTION('center_axis',(0.,-1.,0.));
#480=DIRECTION('ref_axis',(1.,0.,0.));
#481=DIRECTION('center_axis',(0.,-1.,0.));
#482=DIRECTION('ref_axis',(0.,0.,-1.));
#483=DIRECTION('center_axis',(0.,-1.,0.));
#484=DIRECTION('ref_axis',(1.,0.,0.));
#485=DIRECTION('center_axis',(0.,-1.,0.));
#486=DIRECTION('ref_axis',(0.,0.,-1.));
#487=DIRECTION('center_axis',(0.,-1.,0.));
#488=DIRECTION('ref_axis',(1.,0.,0.));
#489=DIRECTION('center_axis',(0.,-1.,0.));
#490=DIRECTION('ref_axis',(1.,0.,0.));
#491=DIRECTION('center_axis',(0.,-1.,0.));
#492=DIRECTION('ref_axis',(1.,0.,0.));
#493=DIRECTION('center_axis',(0.,1.,0.));
#494=DIRECTION('ref_axis',(0.,0.,1.));
#495=CARTESIAN_POINT('',(0.,0.,0.));
#496=CARTESIAN_POINT('Origin',(0.,143.368347502413,0.));
#497=CARTESIAN_POINT('',(45.0340741737109,143.627166547515,-9.86076131526265E-31));
#498=CARTESIAN_POINT('Origin',(0.,143.627166547515,-5.51508347893996E-15));
#499=CARTESIAN_POINT('',(45.,143.368347502413,-1.10218211923262E-14));
#500=CARTESIAN_POINT('Origin',(0.,143.368347502413,0.));
#501=CARTESIAN_POINT('Origin',(0.,75.25,0.));
#502=CARTESIAN_POINT('',(45.,7.,0.));
#503=CARTESIAN_POINT('Origin',(0.,6.99999999999999,0.));
#504=CARTESIAN_POINT('Origin',(0.,152.331829031097,0.));
#505=CARTESIAN_POINT('',(49.7329629131445,161.163658062195,0.));
#506=CARTESIAN_POINT('Origin',(0.,161.163658062195,0.));
#507=CARTESIAN_POINT('Origin',(0.,6.99999999999999,0.));
#508=CARTESIAN_POINT('',(42.746794344809,0.,0.));
#509=CARTESIAN_POINT('Origin',(0.,0.,0.));
#510=CARTESIAN_POINT('Origin',(40.5,0.,0.));
#511=CARTESIAN_POINT('',(40.5,-1.09476442525376E-46,0.));
#512=CARTESIAN_POINT('Origin',(0.,0.,0.));
#513=CARTESIAN_POINT('Origin',(0.,214.75,0.));
#514=CARTESIAN_POINT('',(50.,217.,0.));
#515=CARTESIAN_POINT('Origin',(0.,217.,0.));
#516=CARTESIAN_POINT('',(50.,212.5,0.));
#517=CARTESIAN_POINT('Origin',(0.,212.5,0.));
#518=CARTESIAN_POINT('Origin',(0.,212.5,0.));
#519=CARTESIAN_POINT('',(50.5,212.,0.));
#520=CARTESIAN_POINT('Origin',(0.,212.,0.));
#521=CARTESIAN_POINT('Origin',(52.5,212.,0.));
#522=CARTESIAN_POINT('',(52.5,212.,0.));
#523=CARTESIAN_POINT('Origin',(0.,212.,0.));
#524=CARTESIAN_POINT('Origin',(0.,210.,0.));
#525=CARTESIAN_POINT('',(54.5,210.,0.));
#526=CARTESIAN_POINT('Origin',(0.,210.,0.));
#527=CARTESIAN_POINT('Origin',(0.,203.,0.));
#528=CARTESIAN_POINT('',(54.5,196.,0.));
#529=CARTESIAN_POINT('Origin',(0.,196.,0.));
#530=CARTESIAN_POINT('Origin',(0.,196.,0.));
#531=CARTESIAN_POINT('',(52.5,194.,0.));
#532=CARTESIAN_POINT('Origin',(0.,194.,0.));
#533=CARTESIAN_POINT('Origin',(50.25,194.,0.));
#534=CARTESIAN_POINT('',(50.25,194.,0.));
#535=CARTESIAN_POINT('Origin',(0.,194.,0.));
#536=CARTESIAN_POINT('Origin',(0.,193.5,0.));
#537=CARTESIAN_POINT('',(49.75,193.5,0.));
#538=CARTESIAN_POINT('Origin',(0.,193.5,0.));
#539=CARTESIAN_POINT('Origin',(0.,177.396533792373,0.));
#540=CARTESIAN_POINT('',(49.75,161.293067584746,0.));
#541=CARTESIAN_POINT('Origin',(0.,161.293067584746,0.));
#542=CARTESIAN_POINT('Origin',(0.,161.293067584746,0.));
#543=CARTESIAN_POINT('Origin',(0.,143.796218119572,0.));
#544=CARTESIAN_POINT('',(40.5,144.092436239143,0.));
#545=CARTESIAN_POINT('Origin',(0.,144.092436239143,0.));
#546=CARTESIAN_POINT('Origin',(0.,152.924265270241,0.));
#547=CARTESIAN_POINT('',(45.2329629131445,161.756094301338,0.));
#548=CARTESIAN_POINT('Origin',(0.,161.756094301338,0.));
#549=CARTESIAN_POINT('Origin',(0.,161.885503823889,0.));
#550=CARTESIAN_POINT('',(45.25,161.885503823889,0.));
#551=CARTESIAN_POINT('Origin',(0.,161.885503823889,0.));
#552=CARTESIAN_POINT('Origin',(0.,178.442751911945,0.));
#553=CARTESIAN_POINT('',(45.25,195.,0.));
#554=CARTESIAN_POINT('Origin',(0.,195.,0.));
#555=CARTESIAN_POINT('Origin',(0.,195.,0.));
#556=CARTESIAN_POINT('',(48.25,198.,0.));
#557=CARTESIAN_POINT('Origin',(0.,198.,0.));
#558=CARTESIAN_POINT('Origin',(49.65,198.,0.));
#559=CARTESIAN_POINT('',(49.65,198.,0.));
#560=CARTESIAN_POINT('Origin',(0.,198.,0.));
#561=CARTESIAN_POINT('Origin',(0.,198.5,0.));
#562=CARTESIAN_POINT('',(50.15,198.5,0.));
#563=CARTESIAN_POINT('Origin',(0.,198.5,0.));
#564=CARTESIAN_POINT('Origin',(0.,203.,0.));
#565=CARTESIAN_POINT('',(50.15,207.5,0.));
#566=CARTESIAN_POINT('Origin',(0.,207.5,0.));
#567=CARTESIAN_POINT('Origin',(0.,207.5,0.));
#568=CARTESIAN_POINT('',(49.65,208.,0.));
#569=CARTESIAN_POINT('Origin',(0.,208.,0.));
#570=CARTESIAN_POINT('Origin',(48.5,208.,0.));
#571=CARTESIAN_POINT('',(48.5,208.,0.));
#572=CARTESIAN_POINT('Origin',(0.,208.,0.));
#573=CARTESIAN_POINT('Origin',(0.,211.,0.));
#574=CARTESIAN_POINT('',(45.5,211.,0.));
#575=CARTESIAN_POINT('Origin',(0.,211.,0.));
#576=CARTESIAN_POINT('Origin',(0.,214.,0.));
#577=CARTESIAN_POINT('',(45.5,217.,0.));
#578=CARTESIAN_POINT('Origin',(0.,217.,0.));
#579=CARTESIAN_POINT('Origin',(50.,217.,0.));
#580=UNCERTAINTY_MEASURE_WITH_UNIT(LENGTH_MEASURE(0.01),#584,
'DISTANCE_ACCURACY_VALUE',
'Maximum model space distance between geometric entities at asserted c
onnectivities');
#581=UNCERTAINTY_MEASURE_WITH_UNIT(LENGTH_MEASURE(1.E-6),#584,
'DISTANCE_ACCURACY_VALUE',
'Maximum model space distance between geometric entities at asserted c
onnectivities');
#582=(
GEOMETRIC_REPRESENTATION_CONTEXT(3)
GLOBAL_UNCERTAINTY_ASSIGNED_CONTEXT((#580))
GLOBAL_UNIT_ASSIGNED_CONTEXT((#584,#587,#585))
REPRESENTATION_CONTEXT('','3D')
);
#583=(
GEOMETRIC_REPRESENTATION_CONTEXT(3)
GLOBAL_UNCERTAINTY_ASSIGNED_CONTEXT((#581))
GLOBAL_UNIT_ASSIGNED_CONTEXT((#584,#587,#585))
REPRESENTATION_CONTEXT('','3D')
);
#584=(
LENGTH_UNIT()
NAMED_UNIT(*)
SI_UNIT(.MILLI.,.METRE.)
);
#585=(
NAMED_UNIT(*)
SI_UNIT($,.STERADIAN.)
SOLID_ANGLE_UNIT()
);
#586=DIMENSIONAL_EXPONENTS(0.,0.,0.,0.,0.,0.,0.);
#587=(
CONVERSION_BASED_UNIT('degree',#589)
NAMED_UNIT(#586)
PLANE_ANGLE_UNIT()
);
#588=(
NAMED_UNIT(*)
PLANE_ANGLE_UNIT()
SI_UNIT($,.RADIAN.)
);
#589=PLANE_ANGLE_MEASURE_WITH_UNIT(PLANE_ANGLE_MEASURE(0.01745329252),#588);
#590=SHAPE_DEFINITION_REPRESENTATION(#591,#592);
#591=PRODUCT_DEFINITION_SHAPE('',$,#594);
#592=SHAPE_REPRESENTATION('',(#324),#582);
#593=PRODUCT_DEFINITION_CONTEXT('part definition',#598,'design');
#594=PRODUCT_DEFINITION('334000 SKOLANsafeEM Passl\X\E4ngen DN_OD 90x1
50','334000 SKOLANsafeEM Passl\X\E4ngen DN_OD 90x150',#595,#593);
#595=PRODUCT_DEFINITION_FORMATION('',$,#600);
#596=PRODUCT_RELATED_PRODUCT_CATEGORY(
'334000 SKOLANsafeEM Passl\X\E4ngen DN_OD 90x150',
'334000 SKOLANsafeEM Passl\X\E4ngen DN_OD 90x150',(#600));
#597=APPLICATION_PROTOCOL_DEFINITION('international standard',
'automotive_design',2009,#598);
#598=APPLICATION_CONTEXT(
'Core Data for Automotive Mechanical Design Process');
#599=PRODUCT_CONTEXT('part definition',#598,'mechanical');
#600=PRODUCT('334000 SKOLANsafeEM Passl\X\E4ngen DN_OD 90x150',
'334000 SKOLANsafeEM Passl\X\E4ngen DN_OD 90x150',$,(#599));
#601=PRESENTATION_STYLE_ASSIGNMENT((#602));
#602=SURFACE_STYLE_USAGE(.BOTH.,#603);
#603=SURFACE_SIDE_STYLE('',(#604));
#604=SURFACE_STYLE_FILL_AREA(#605);
#605=FILL_AREA_STYLE('',(#606));
#606=FILL_AREA_STYLE_COLOUR('',#607);
#607=COLOUR_RGB('',0.749019607843137,0.749019607843137,0.749019607843137);
ENDSEC;
END-ISO-10303-21;
