ISO-10303-21;
HEADER;
/* Generated by software containing ST-Developer
 * from STEP Tools, Inc. (www.steptools.com) 
 */

FILE_DESCRIPTION(
/* description */ (''),
/* implementation_level */ '2;1');

FILE_NAME(
/* name */ 
'Y:\\ACad-Dateien\\Ostendorf\\Skolan Safe\\Kundenzeichnung\\333830 SKO
LANsafe Anschluss an HT DN_OD 78.stp',
/* time_stamp */ '2018-07-16T09:49:17+02:00',
/* author */ ('user1'),
/* organization */ (''),
/* preprocessor_version */ 'ST-DEVELOPER v16.1',
/* originating_system */ 'Autodesk Inventor 2016',
/* authorisation */ '');

FILE_SCHEMA (('AUTOMOTIVE_DESIGN { 1 0 10303 214 3 1 1 }'));
ENDSEC;

DATA;
#10=MECHANICAL_DESIGN_GEOMETRIC_PRESENTATION_REPRESENTATION('',(#13),#603);
#11=SHAPE_REPRESENTATION_RELATIONSHIP('SRR','None',#612,#12);
#12=ADVANCED_BREP_SHAPE_REPRESENTATION('',(#14),#602);
#13=STYLED_ITEM('',(#621),#14);
#14=MANIFOLD_SOLID_BREP('Volumenk\X\F6rper1',#334);
#15=CONICAL_SURFACE('',#363,39.375,16.6992442339937);
#16=CONICAL_SURFACE('',#367,38.5980762113533,15.);
#17=CONICAL_SURFACE('',#373,37.225,16.6992442339938);
#18=PLANE('',#341);
#19=PLANE('',#349);
#20=PLANE('',#355);
#21=PLANE('',#359);
#22=PLANE('',#369);
#23=PLANE('',#379);
#24=PLANE('',#387);
#25=PLANE('',#393);
#26=TOROIDAL_SURFACE('',#339,40.25,0.500000000000025);
#27=TOROIDAL_SURFACE('',#343,42.5,1.99999999999999);
#28=TOROIDAL_SURFACE('',#347,42.5,1.99999999999998);
#29=TOROIDAL_SURFACE('',#351,40.25,0.500000000000007);
#30=TOROIDAL_SURFACE('',#377,38.7499999999709,0.999999999999996);
#31=TOROIDAL_SURFACE('',#381,42.,0.500000000000025);
#32=TOROIDAL_SURFACE('',#385,42.,0.500000000000007);
#33=TOROIDAL_SURFACE('',#389,38.7499999999709,0.999999999999996);
#34=FACE_BOUND('',#93,.T.);
#35=FACE_BOUND('',#95,.T.);
#36=FACE_BOUND('',#97,.T.);
#37=FACE_BOUND('',#99,.T.);
#38=FACE_BOUND('',#101,.T.);
#39=FACE_BOUND('',#103,.T.);
#40=FACE_BOUND('',#105,.T.);
#41=FACE_BOUND('',#107,.T.);
#42=FACE_BOUND('',#109,.T.);
#43=FACE_BOUND('',#111,.T.);
#44=FACE_BOUND('',#113,.T.);
#45=FACE_BOUND('',#115,.T.);
#46=FACE_BOUND('',#117,.T.);
#47=FACE_BOUND('',#119,.T.);
#48=FACE_BOUND('',#121,.T.);
#49=FACE_BOUND('',#123,.T.);
#50=FACE_BOUND('',#125,.T.);
#51=FACE_BOUND('',#127,.T.);
#52=FACE_BOUND('',#129,.T.);
#53=FACE_BOUND('',#131,.T.);
#54=FACE_BOUND('',#133,.T.);
#55=FACE_BOUND('',#135,.T.);
#56=FACE_BOUND('',#137,.T.);
#57=FACE_BOUND('',#139,.T.);
#58=FACE_BOUND('',#141,.T.);
#59=FACE_BOUND('',#143,.T.);
#60=FACE_BOUND('',#145,.T.);
#61=FACE_BOUND('',#147,.T.);
#62=FACE_BOUND('',#149,.T.);
#63=FACE_OUTER_BOUND('',#92,.T.);
#64=FACE_OUTER_BOUND('',#94,.T.);
#65=FACE_OUTER_BOUND('',#96,.T.);
#66=FACE_OUTER_BOUND('',#98,.T.);
#67=FACE_OUTER_BOUND('',#100,.T.);
#68=FACE_OUTER_BOUND('',#102,.T.);
#69=FACE_OUTER_BOUND('',#104,.T.);
#70=FACE_OUTER_BOUND('',#106,.T.);
#71=FACE_OUTER_BOUND('',#108,.T.);
#72=FACE_OUTER_BOUND('',#110,.T.);
#73=FACE_OUTER_BOUND('',#112,.T.);
#74=FACE_OUTER_BOUND('',#114,.T.);
#75=FACE_OUTER_BOUND('',#116,.T.);
#76=FACE_OUTER_BOUND('',#118,.T.);
#77=FACE_OUTER_BOUND('',#120,.T.);
#78=FACE_OUTER_BOUND('',#122,.T.);
#79=FACE_OUTER_BOUND('',#124,.T.);
#80=FACE_OUTER_BOUND('',#126,.T.);
#81=FACE_OUTER_BOUND('',#128,.T.);
#82=FACE_OUTER_BOUND('',#130,.T.);
#83=FACE_OUTER_BOUND('',#132,.T.);
#84=FACE_OUTER_BOUND('',#134,.T.);
#85=FACE_OUTER_BOUND('',#136,.T.);
#86=FACE_OUTER_BOUND('',#138,.T.);
#87=FACE_OUTER_BOUND('',#140,.T.);
#88=FACE_OUTER_BOUND('',#142,.T.);
#89=FACE_OUTER_BOUND('',#144,.T.);
#90=FACE_OUTER_BOUND('',#146,.T.);
#91=FACE_OUTER_BOUND('',#148,.T.);
#92=EDGE_LOOP('',(#237));
#93=EDGE_LOOP('',(#238));
#94=EDGE_LOOP('',(#239));
#95=EDGE_LOOP('',(#240));
#96=EDGE_LOOP('',(#241));
#97=EDGE_LOOP('',(#242));
#98=EDGE_LOOP('',(#243));
#99=EDGE_LOOP('',(#244));
#100=EDGE_LOOP('',(#245));
#101=EDGE_LOOP('',(#246));
#102=EDGE_LOOP('',(#247));
#103=EDGE_LOOP('',(#248));
#104=EDGE_LOOP('',(#249));
#105=EDGE_LOOP('',(#250));
#106=EDGE_LOOP('',(#251));
#107=EDGE_LOOP('',(#252));
#108=EDGE_LOOP('',(#253));
#109=EDGE_LOOP('',(#254));
#110=EDGE_LOOP('',(#255));
#111=EDGE_LOOP('',(#256));
#112=EDGE_LOOP('',(#257));
#113=EDGE_LOOP('',(#258));
#114=EDGE_LOOP('',(#259));
#115=EDGE_LOOP('',(#260));
#116=EDGE_LOOP('',(#261));
#117=EDGE_LOOP('',(#262));
#118=EDGE_LOOP('',(#263));
#119=EDGE_LOOP('',(#264));
#120=EDGE_LOOP('',(#265));
#121=EDGE_LOOP('',(#266));
#122=EDGE_LOOP('',(#267));
#123=EDGE_LOOP('',(#268));
#124=EDGE_LOOP('',(#269));
#125=EDGE_LOOP('',(#270));
#126=EDGE_LOOP('',(#271));
#127=EDGE_LOOP('',(#272));
#128=EDGE_LOOP('',(#273));
#129=EDGE_LOOP('',(#274));
#130=EDGE_LOOP('',(#275));
#131=EDGE_LOOP('',(#276));
#132=EDGE_LOOP('',(#277));
#133=EDGE_LOOP('',(#278));
#134=EDGE_LOOP('',(#279));
#135=EDGE_LOOP('',(#280));
#136=EDGE_LOOP('',(#281));
#137=EDGE_LOOP('',(#282));
#138=EDGE_LOOP('',(#283));
#139=EDGE_LOOP('',(#284));
#140=EDGE_LOOP('',(#285));
#141=EDGE_LOOP('',(#286));
#142=EDGE_LOOP('',(#287));
#143=EDGE_LOOP('',(#288));
#144=EDGE_LOOP('',(#289));
#145=EDGE_LOOP('',(#290));
#146=EDGE_LOOP('',(#291));
#147=EDGE_LOOP('',(#292));
#148=EDGE_LOOP('',(#293));
#149=EDGE_LOOP('',(#294));
#150=CIRCLE('',#337,39.75);
#151=CIRCLE('',#338,39.75);
#152=CIRCLE('',#340,40.25);
#153=CIRCLE('',#342,42.5);
#154=CIRCLE('',#344,44.5);
#155=CIRCLE('',#346,44.5);
#156=CIRCLE('',#348,42.5);
#157=CIRCLE('',#350,40.25);
#158=CIRCLE('',#352,39.75);
#159=CIRCLE('',#354,39.75);
#160=CIRCLE('',#356,42.);
#161=CIRCLE('',#358,42.);
#162=CIRCLE('',#360,39.75);
#163=CIRCLE('',#362,39.75);
#164=CIRCLE('',#364,39.);
#165=CIRCLE('',#366,39.);
#166=CIRCLE('',#368,38.1961524227066);
#167=CIRCLE('',#370,36.7);
#168=CIRCLE('',#372,36.7);
#169=CIRCLE('',#374,37.75);
#170=CIRCLE('',#376,37.7499999999709);
#171=CIRCLE('',#378,38.7499999999709);
#172=CIRCLE('',#380,42.);
#173=CIRCLE('',#382,42.5);
#174=CIRCLE('',#384,42.5);
#175=CIRCLE('',#386,42.);
#176=CIRCLE('',#388,38.7499999999709);
#177=CIRCLE('',#390,37.7499999999709);
#178=CIRCLE('',#392,37.7499999999709);
#179=VERTEX_POINT('',#514);
#180=VERTEX_POINT('',#516);
#181=VERTEX_POINT('',#519);
#182=VERTEX_POINT('',#522);
#183=VERTEX_POINT('',#525);
#184=VERTEX_POINT('',#528);
#185=VERTEX_POINT('',#531);
#186=VERTEX_POINT('',#534);
#187=VERTEX_POINT('',#537);
#188=VERTEX_POINT('',#540);
#189=VERTEX_POINT('',#543);
#190=VERTEX_POINT('',#546);
#191=VERTEX_POINT('',#549);
#192=VERTEX_POINT('',#552);
#193=VERTEX_POINT('',#555);
#194=VERTEX_POINT('',#558);
#195=VERTEX_POINT('',#561);
#196=VERTEX_POINT('',#564);
#197=VERTEX_POINT('',#567);
#198=VERTEX_POINT('',#570);
#199=VERTEX_POINT('',#573);
#200=VERTEX_POINT('',#576);
#201=VERTEX_POINT('',#579);
#202=VERTEX_POINT('',#582);
#203=VERTEX_POINT('',#585);
#204=VERTEX_POINT('',#588);
#205=VERTEX_POINT('',#591);
#206=VERTEX_POINT('',#594);
#207=VERTEX_POINT('',#597);
#208=EDGE_CURVE('',#179,#179,#150,.T.);
#209=EDGE_CURVE('',#180,#180,#151,.T.);
#210=EDGE_CURVE('',#181,#181,#152,.T.);
#211=EDGE_CURVE('',#182,#182,#153,.T.);
#212=EDGE_CURVE('',#183,#183,#154,.T.);
#213=EDGE_CURVE('',#184,#184,#155,.T.);
#214=EDGE_CURVE('',#185,#185,#156,.T.);
#215=EDGE_CURVE('',#186,#186,#157,.T.);
#216=EDGE_CURVE('',#187,#187,#158,.T.);
#217=EDGE_CURVE('',#188,#188,#159,.T.);
#218=EDGE_CURVE('',#189,#189,#160,.T.);
#219=EDGE_CURVE('',#190,#190,#161,.T.);
#220=EDGE_CURVE('',#191,#191,#162,.T.);
#221=EDGE_CURVE('',#192,#192,#163,.T.);
#222=EDGE_CURVE('',#193,#193,#164,.T.);
#223=EDGE_CURVE('',#194,#194,#165,.T.);
#224=EDGE_CURVE('',#195,#195,#166,.T.);
#225=EDGE_CURVE('',#196,#196,#167,.T.);
#226=EDGE_CURVE('',#197,#197,#168,.T.);
#227=EDGE_CURVE('',#198,#198,#169,.T.);
#228=EDGE_CURVE('',#199,#199,#170,.T.);
#229=EDGE_CURVE('',#200,#200,#171,.T.);
#230=EDGE_CURVE('',#201,#201,#172,.T.);
#231=EDGE_CURVE('',#202,#202,#173,.T.);
#232=EDGE_CURVE('',#203,#203,#174,.T.);
#233=EDGE_CURVE('',#204,#204,#175,.T.);
#234=EDGE_CURVE('',#205,#205,#176,.T.);
#235=EDGE_CURVE('',#206,#206,#177,.T.);
#236=EDGE_CURVE('',#207,#207,#178,.T.);
#237=ORIENTED_EDGE('',*,*,#208,.T.);
#238=ORIENTED_EDGE('',*,*,#209,.F.);
#239=ORIENTED_EDGE('',*,*,#209,.T.);
#240=ORIENTED_EDGE('',*,*,#210,.F.);
#241=ORIENTED_EDGE('',*,*,#211,.F.);
#242=ORIENTED_EDGE('',*,*,#210,.T.);
#243=ORIENTED_EDGE('',*,*,#211,.T.);
#244=ORIENTED_EDGE('',*,*,#212,.F.);
#245=ORIENTED_EDGE('',*,*,#212,.T.);
#246=ORIENTED_EDGE('',*,*,#213,.F.);
#247=ORIENTED_EDGE('',*,*,#213,.T.);
#248=ORIENTED_EDGE('',*,*,#214,.F.);
#249=ORIENTED_EDGE('',*,*,#214,.T.);
#250=ORIENTED_EDGE('',*,*,#215,.F.);
#251=ORIENTED_EDGE('',*,*,#215,.T.);
#252=ORIENTED_EDGE('',*,*,#216,.F.);
#253=ORIENTED_EDGE('',*,*,#216,.T.);
#254=ORIENTED_EDGE('',*,*,#217,.F.);
#255=ORIENTED_EDGE('',*,*,#218,.F.);
#256=ORIENTED_EDGE('',*,*,#217,.T.);
#257=ORIENTED_EDGE('',*,*,#218,.T.);
#258=ORIENTED_EDGE('',*,*,#219,.F.);
#259=ORIENTED_EDGE('',*,*,#219,.T.);
#260=ORIENTED_EDGE('',*,*,#220,.F.);
#261=ORIENTED_EDGE('',*,*,#220,.T.);
#262=ORIENTED_EDGE('',*,*,#221,.F.);
#263=ORIENTED_EDGE('',*,*,#221,.T.);
#264=ORIENTED_EDGE('',*,*,#222,.F.);
#265=ORIENTED_EDGE('',*,*,#222,.T.);
#266=ORIENTED_EDGE('',*,*,#223,.F.);
#267=ORIENTED_EDGE('',*,*,#223,.T.);
#268=ORIENTED_EDGE('',*,*,#224,.F.);
#269=ORIENTED_EDGE('',*,*,#224,.T.);
#270=ORIENTED_EDGE('',*,*,#225,.F.);
#271=ORIENTED_EDGE('',*,*,#225,.T.);
#272=ORIENTED_EDGE('',*,*,#226,.F.);
#273=ORIENTED_EDGE('',*,*,#226,.T.);
#274=ORIENTED_EDGE('',*,*,#227,.F.);
#275=ORIENTED_EDGE('',*,*,#227,.T.);
#276=ORIENTED_EDGE('',*,*,#228,.F.);
#277=ORIENTED_EDGE('',*,*,#228,.T.);
#278=ORIENTED_EDGE('',*,*,#229,.F.);
#279=ORIENTED_EDGE('',*,*,#230,.F.);
#280=ORIENTED_EDGE('',*,*,#229,.T.);
#281=ORIENTED_EDGE('',*,*,#230,.T.);
#282=ORIENTED_EDGE('',*,*,#231,.F.);
#283=ORIENTED_EDGE('',*,*,#231,.T.);
#284=ORIENTED_EDGE('',*,*,#232,.F.);
#285=ORIENTED_EDGE('',*,*,#232,.T.);
#286=ORIENTED_EDGE('',*,*,#233,.F.);
#287=ORIENTED_EDGE('',*,*,#233,.T.);
#288=ORIENTED_EDGE('',*,*,#234,.F.);
#289=ORIENTED_EDGE('',*,*,#234,.T.);
#290=ORIENTED_EDGE('',*,*,#235,.F.);
#291=ORIENTED_EDGE('',*,*,#235,.T.);
#292=ORIENTED_EDGE('',*,*,#236,.F.);
#293=ORIENTED_EDGE('',*,*,#208,.F.);
#294=ORIENTED_EDGE('',*,*,#236,.T.);
#295=CYLINDRICAL_SURFACE('',#336,39.75);
#296=CYLINDRICAL_SURFACE('',#345,44.5);
#297=CYLINDRICAL_SURFACE('',#353,39.75);
#298=CYLINDRICAL_SURFACE('',#357,42.);
#299=CYLINDRICAL_SURFACE('',#361,39.75);
#300=CYLINDRICAL_SURFACE('',#365,39.);
#301=CYLINDRICAL_SURFACE('',#371,36.7);
#302=CYLINDRICAL_SURFACE('',#375,37.7499999999709);
#303=CYLINDRICAL_SURFACE('',#383,42.5);
#304=CYLINDRICAL_SURFACE('',#391,37.7499999999709);
#305=ADVANCED_FACE('',(#63,#34),#295,.T.);
#306=ADVANCED_FACE('',(#64,#35),#26,.F.);
#307=ADVANCED_FACE('',(#65,#36),#18,.T.);
#308=ADVANCED_FACE('',(#66,#37),#27,.T.);
#309=ADVANCED_FACE('',(#67,#38),#296,.T.);
#310=ADVANCED_FACE('',(#68,#39),#28,.T.);
#311=ADVANCED_FACE('',(#69,#40),#19,.T.);
#312=ADVANCED_FACE('',(#70,#41),#29,.F.);
#313=ADVANCED_FACE('',(#71,#42),#297,.T.);
#314=ADVANCED_FACE('',(#72,#43),#20,.T.);
#315=ADVANCED_FACE('',(#73,#44),#298,.T.);
#316=ADVANCED_FACE('',(#74,#45),#21,.T.);
#317=ADVANCED_FACE('',(#75,#46),#299,.T.);
#318=ADVANCED_FACE('',(#76,#47),#15,.T.);
#319=ADVANCED_FACE('',(#77,#48),#300,.T.);
#320=ADVANCED_FACE('',(#78,#49),#16,.T.);
#321=ADVANCED_FACE('',(#79,#50),#22,.T.);
#322=ADVANCED_FACE('',(#80,#51),#301,.F.);
#323=ADVANCED_FACE('',(#81,#52),#17,.F.);
#324=ADVANCED_FACE('',(#82,#53),#302,.F.);
#325=ADVANCED_FACE('',(#83,#54),#30,.T.);
#326=ADVANCED_FACE('',(#84,#55),#23,.T.);
#327=ADVANCED_FACE('',(#85,#56),#31,.F.);
#328=ADVANCED_FACE('',(#86,#57),#303,.F.);
#329=ADVANCED_FACE('',(#87,#58),#32,.F.);
#330=ADVANCED_FACE('',(#88,#59),#24,.T.);
#331=ADVANCED_FACE('',(#89,#60),#33,.T.);
#332=ADVANCED_FACE('',(#90,#61),#304,.F.);
#333=ADVANCED_FACE('',(#91,#62),#25,.T.);
#334=CLOSED_SHELL('',(#305,#306,#307,#308,#309,#310,#311,#312,#313,#314,
#315,#316,#317,#318,#319,#320,#321,#322,#323,#324,#325,#326,#327,#328,#329,
#330,#331,#332,#333));
#335=AXIS2_PLACEMENT_3D('placement',#512,#394,#395);
#336=AXIS2_PLACEMENT_3D('',#513,#396,#397);
#337=AXIS2_PLACEMENT_3D('',#515,#398,#399);
#338=AXIS2_PLACEMENT_3D('',#517,#400,#401);
#339=AXIS2_PLACEMENT_3D('',#518,#402,#403);
#340=AXIS2_PLACEMENT_3D('',#520,#404,#405);
#341=AXIS2_PLACEMENT_3D('',#521,#406,#407);
#342=AXIS2_PLACEMENT_3D('',#523,#408,#409);
#343=AXIS2_PLACEMENT_3D('',#524,#410,#411);
#344=AXIS2_PLACEMENT_3D('',#526,#412,#413);
#345=AXIS2_PLACEMENT_3D('',#527,#414,#415);
#346=AXIS2_PLACEMENT_3D('',#529,#416,#417);
#347=AXIS2_PLACEMENT_3D('',#530,#418,#419);
#348=AXIS2_PLACEMENT_3D('',#532,#420,#421);
#349=AXIS2_PLACEMENT_3D('',#533,#422,#423);
#350=AXIS2_PLACEMENT_3D('',#535,#424,#425);
#351=AXIS2_PLACEMENT_3D('',#536,#426,#427);
#352=AXIS2_PLACEMENT_3D('',#538,#428,#429);
#353=AXIS2_PLACEMENT_3D('',#539,#430,#431);
#354=AXIS2_PLACEMENT_3D('',#541,#432,#433);
#355=AXIS2_PLACEMENT_3D('',#542,#434,#435);
#356=AXIS2_PLACEMENT_3D('',#544,#436,#437);
#357=AXIS2_PLACEMENT_3D('',#545,#438,#439);
#358=AXIS2_PLACEMENT_3D('',#547,#440,#441);
#359=AXIS2_PLACEMENT_3D('',#548,#442,#443);
#360=AXIS2_PLACEMENT_3D('',#550,#444,#445);
#361=AXIS2_PLACEMENT_3D('',#551,#446,#447);
#362=AXIS2_PLACEMENT_3D('',#553,#448,#449);
#363=AXIS2_PLACEMENT_3D('',#554,#450,#451);
#364=AXIS2_PLACEMENT_3D('',#556,#452,#453);
#365=AXIS2_PLACEMENT_3D('',#557,#454,#455);
#366=AXIS2_PLACEMENT_3D('',#559,#456,#457);
#367=AXIS2_PLACEMENT_3D('',#560,#458,#459);
#368=AXIS2_PLACEMENT_3D('',#562,#460,#461);
#369=AXIS2_PLACEMENT_3D('',#563,#462,#463);
#370=AXIS2_PLACEMENT_3D('',#565,#464,#465);
#371=AXIS2_PLACEMENT_3D('',#566,#466,#467);
#372=AXIS2_PLACEMENT_3D('',#568,#468,#469);
#373=AXIS2_PLACEMENT_3D('',#569,#470,#471);
#374=AXIS2_PLACEMENT_3D('',#571,#472,#473);
#375=AXIS2_PLACEMENT_3D('',#572,#474,#475);
#376=AXIS2_PLACEMENT_3D('',#574,#476,#477);
#377=AXIS2_PLACEMENT_3D('',#575,#478,#479);
#378=AXIS2_PLACEMENT_3D('',#577,#480,#481);
#379=AXIS2_PLACEMENT_3D('',#578,#482,#483);
#380=AXIS2_PLACEMENT_3D('',#580,#484,#485);
#381=AXIS2_PLACEMENT_3D('',#581,#486,#487);
#382=AXIS2_PLACEMENT_3D('',#583,#488,#489);
#383=AXIS2_PLACEMENT_3D('',#584,#490,#491);
#384=AXIS2_PLACEMENT_3D('',#586,#492,#493);
#385=AXIS2_PLACEMENT_3D('',#587,#494,#495);
#386=AXIS2_PLACEMENT_3D('',#589,#496,#497);
#387=AXIS2_PLACEMENT_3D('',#590,#498,#499);
#388=AXIS2_PLACEMENT_3D('',#592,#500,#501);
#389=AXIS2_PLACEMENT_3D('',#593,#502,#503);
#390=AXIS2_PLACEMENT_3D('',#595,#504,#505);
#391=AXIS2_PLACEMENT_3D('',#596,#506,#507);
#392=AXIS2_PLACEMENT_3D('',#598,#508,#509);
#393=AXIS2_PLACEMENT_3D('',#599,#510,#511);
#394=DIRECTION('axis',(0.,0.,1.));
#395=DIRECTION('refdir',(1.,0.,0.));
#396=DIRECTION('center_axis',(0.,-1.,0.));
#397=DIRECTION('ref_axis',(1.,0.,0.));
#398=DIRECTION('center_axis',(0.,-1.,0.));
#399=DIRECTION('ref_axis',(1.,0.,0.));
#400=DIRECTION('center_axis',(0.,-1.,0.));
#401=DIRECTION('ref_axis',(1.,0.,0.));
#402=DIRECTION('center_axis',(0.,-1.,0.));
#403=DIRECTION('ref_axis',(0.,0.,-1.));
#404=DIRECTION('center_axis',(0.,-1.,0.));
#405=DIRECTION('ref_axis',(1.,0.,0.));
#406=DIRECTION('center_axis',(0.,1.,0.));
#407=DIRECTION('ref_axis',(0.,0.,1.));
#408=DIRECTION('center_axis',(0.,-1.,0.));
#409=DIRECTION('ref_axis',(1.,0.,0.));
#410=DIRECTION('center_axis',(0.,-1.,0.));
#411=DIRECTION('ref_axis',(0.,0.,-1.));
#412=DIRECTION('center_axis',(0.,-1.,0.));
#413=DIRECTION('ref_axis',(1.,0.,0.));
#414=DIRECTION('center_axis',(0.,-1.,0.));
#415=DIRECTION('ref_axis',(1.,0.,0.));
#416=DIRECTION('center_axis',(0.,-1.,0.));
#417=DIRECTION('ref_axis',(1.,0.,0.));
#418=DIRECTION('center_axis',(0.,-1.,0.));
#419=DIRECTION('ref_axis',(0.,0.,-1.));
#420=DIRECTION('center_axis',(0.,-1.,0.));
#421=DIRECTION('ref_axis',(1.,0.,0.));
#422=DIRECTION('center_axis',(0.,-1.,0.));
#423=DIRECTION('ref_axis',(0.,0.,-1.));
#424=DIRECTION('center_axis',(0.,-1.,0.));
#425=DIRECTION('ref_axis',(1.,0.,0.));
#426=DIRECTION('center_axis',(0.,-1.,0.));
#427=DIRECTION('ref_axis',(0.,0.,-1.));
#428=DIRECTION('center_axis',(0.,-1.,0.));
#429=DIRECTION('ref_axis',(1.,0.,0.));
#430=DIRECTION('center_axis',(0.,-1.,0.));
#431=DIRECTION('ref_axis',(1.,0.,0.));
#432=DIRECTION('center_axis',(0.,-1.,0.));
#433=DIRECTION('ref_axis',(1.,0.,0.));
#434=DIRECTION('center_axis',(0.,1.,0.));
#435=DIRECTION('ref_axis',(0.,0.,1.));
#436=DIRECTION('center_axis',(0.,-1.,0.));
#437=DIRECTION('ref_axis',(1.,0.,0.));
#438=DIRECTION('center_axis',(0.,-1.,0.));
#439=DIRECTION('ref_axis',(1.,0.,0.));
#440=DIRECTION('center_axis',(0.,-1.,0.));
#441=DIRECTION('ref_axis',(1.,0.,0.));
#442=DIRECTION('center_axis',(0.,-1.,0.));
#443=DIRECTION('ref_axis',(0.,0.,-1.));
#444=DIRECTION('center_axis',(0.,-1.,0.));
#445=DIRECTION('ref_axis',(1.,0.,0.));
#446=DIRECTION('center_axis',(0.,-1.,0.));
#447=DIRECTION('ref_axis',(1.,0.,0.));
#448=DIRECTION('center_axis',(0.,-1.,0.));
#449=DIRECTION('ref_axis',(1.,0.,0.));
#450=DIRECTION('center_axis',(0.,1.,0.));
#451=DIRECTION('ref_axis',(1.,0.,0.));
#452=DIRECTION('center_axis',(0.,-1.,0.));
#453=DIRECTION('ref_axis',(1.,0.,0.));
#454=DIRECTION('center_axis',(0.,-1.,0.));
#455=DIRECTION('ref_axis',(1.,0.,0.));
#456=DIRECTION('center_axis',(0.,-1.,0.));
#457=DIRECTION('ref_axis',(1.,0.,0.));
#458=DIRECTION('center_axis',(0.,1.,0.));
#459=DIRECTION('ref_axis',(1.,0.,0.));
#460=DIRECTION('center_axis',(0.,-1.,0.));
#461=DIRECTION('ref_axis',(1.,0.,0.));
#462=DIRECTION('center_axis',(0.,-1.,0.));
#463=DIRECTION('ref_axis',(0.,0.,-1.));
#464=DIRECTION('center_axis',(0.,-1.,0.));
#465=DIRECTION('ref_axis',(1.,0.,0.));
#466=DIRECTION('center_axis',(0.,-1.,0.));
#467=DIRECTION('ref_axis',(1.,0.,0.));
#468=DIRECTION('center_axis',(0.,-1.,0.));
#469=DIRECTION('ref_axis',(1.,0.,0.));
#470=DIRECTION('center_axis',(0.,1.,0.));
#471=DIRECTION('ref_axis',(1.,0.,0.));
#472=DIRECTION('center_axis',(0.,-1.,0.));
#473=DIRECTION('ref_axis',(1.,0.,0.));
#474=DIRECTION('center_axis',(0.,-1.,0.));
#475=DIRECTION('ref_axis',(1.,0.,0.));
#476=DIRECTION('center_axis',(0.,-1.,0.));
#477=DIRECTION('ref_axis',(1.,0.,0.));
#478=DIRECTION('center_axis',(0.,-1.,0.));
#479=DIRECTION('ref_axis',(0.,0.,-1.));
#480=DIRECTION('center_axis',(0.,-1.,0.));
#481=DIRECTION('ref_axis',(1.,0.,0.));
#482=DIRECTION('center_axis',(0.,1.,0.));
#483=DIRECTION('ref_axis',(0.,0.,1.));
#484=DIRECTION('center_axis',(0.,-1.,0.));
#485=DIRECTION('ref_axis',(1.,0.,0.));
#486=DIRECTION('center_axis',(0.,-1.,0.));
#487=DIRECTION('ref_axis',(0.,0.,-1.));
#488=DIRECTION('center_axis',(0.,-1.,0.));
#489=DIRECTION('ref_axis',(1.,0.,0.));
#490=DIRECTION('center_axis',(0.,-1.,0.));
#491=DIRECTION('ref_axis',(1.,0.,0.));
#492=DIRECTION('center_axis',(0.,-1.,0.));
#493=DIRECTION('ref_axis',(1.,0.,0.));
#494=DIRECTION('center_axis',(0.,-1.,0.));
#495=DIRECTION('ref_axis',(0.,0.,-1.));
#496=DIRECTION('center_axis',(0.,-1.,0.));
#497=DIRECTION('ref_axis',(1.,0.,0.));
#498=DIRECTION('center_axis',(0.,-1.,0.));
#499=DIRECTION('ref_axis',(0.,0.,-1.));
#500=DIRECTION('center_axis',(0.,-1.,0.));
#501=DIRECTION('ref_axis',(1.,0.,0.));
#502=DIRECTION('center_axis',(0.,-1.,0.));
#503=DIRECTION('ref_axis',(0.,0.,-1.));
#504=DIRECTION('center_axis',(0.,-1.,0.));
#505=DIRECTION('ref_axis',(1.,0.,0.));
#506=DIRECTION('center_axis',(0.,-1.,0.));
#507=DIRECTION('ref_axis',(1.,0.,0.));
#508=DIRECTION('center_axis',(0.,-1.,0.));
#509=DIRECTION('ref_axis',(1.,0.,0.));
#510=DIRECTION('center_axis',(0.,1.,0.));
#511=DIRECTION('ref_axis',(0.,0.,1.));
#512=CARTESIAN_POINT('',(0.,0.,0.));
#513=CARTESIAN_POINT('Origin',(0.,110.75,0.));
#514=CARTESIAN_POINT('',(39.75,112.5,0.));
#515=CARTESIAN_POINT('Origin',(0.,112.5,0.));
#516=CARTESIAN_POINT('',(39.75,109.,0.));
#517=CARTESIAN_POINT('Origin',(0.,109.,0.));
#518=CARTESIAN_POINT('Origin',(0.,109.,0.));
#519=CARTESIAN_POINT('',(40.25,108.5,0.));
#520=CARTESIAN_POINT('Origin',(0.,108.5,0.));
#521=CARTESIAN_POINT('Origin',(42.5,108.5,0.));
#522=CARTESIAN_POINT('',(42.5,108.5,0.));
#523=CARTESIAN_POINT('Origin',(0.,108.5,0.));
#524=CARTESIAN_POINT('Origin',(0.,106.5,0.));
#525=CARTESIAN_POINT('',(44.5,106.5,0.));
#526=CARTESIAN_POINT('Origin',(0.,106.5,0.));
#527=CARTESIAN_POINT('Origin',(0.,102.5,0.));
#528=CARTESIAN_POINT('',(44.5,98.5,0.));
#529=CARTESIAN_POINT('Origin',(0.,98.5,0.));
#530=CARTESIAN_POINT('Origin',(0.,98.5,0.));
#531=CARTESIAN_POINT('',(42.5,96.5,0.));
#532=CARTESIAN_POINT('Origin',(0.,96.5,0.));
#533=CARTESIAN_POINT('Origin',(40.25,96.5,0.));
#534=CARTESIAN_POINT('',(40.25,96.5,0.));
#535=CARTESIAN_POINT('Origin',(0.,96.5,0.));
#536=CARTESIAN_POINT('Origin',(0.,96.,0.));
#537=CARTESIAN_POINT('',(39.75,96.,0.));
#538=CARTESIAN_POINT('Origin',(0.,96.,0.));
#539=CARTESIAN_POINT('Origin',(0.,94.5,0.));
#540=CARTESIAN_POINT('',(39.75,93.,0.));
#541=CARTESIAN_POINT('Origin',(0.,93.,0.));
#542=CARTESIAN_POINT('Origin',(42.,93.,0.));
#543=CARTESIAN_POINT('',(42.,93.,0.));
#544=CARTESIAN_POINT('Origin',(0.,93.,0.));
#545=CARTESIAN_POINT('Origin',(0.,91.75,0.));
#546=CARTESIAN_POINT('',(42.,90.5,0.));
#547=CARTESIAN_POINT('Origin',(0.,90.5,0.));
#548=CARTESIAN_POINT('Origin',(39.75,90.5,0.));
#549=CARTESIAN_POINT('',(39.75,90.5,0.));
#550=CARTESIAN_POINT('Origin',(0.,90.5,0.));
#551=CARTESIAN_POINT('Origin',(0.,76.5,0.));
#552=CARTESIAN_POINT('',(39.75,62.5,0.));
#553=CARTESIAN_POINT('Origin',(0.,62.5,0.));
#554=CARTESIAN_POINT('Origin',(0.,61.25,0.));
#555=CARTESIAN_POINT('',(39.,60.,0.));
#556=CARTESIAN_POINT('Origin',(0.,60.,0.));
#557=CARTESIAN_POINT('Origin',(0.,31.5,0.));
#558=CARTESIAN_POINT('',(39.,2.99999999999998,0.));
#559=CARTESIAN_POINT('Origin',(0.,2.99999999999999,0.));
#560=CARTESIAN_POINT('Origin',(0.,1.49999999999999,0.));
#561=CARTESIAN_POINT('',(38.1961524227066,-1.72084568816899E-14,0.));
#562=CARTESIAN_POINT('Origin',(0.,-1.77635683940025E-14,0.));
#563=CARTESIAN_POINT('Origin',(36.7,-1.72084568816899E-14,0.));
#564=CARTESIAN_POINT('',(36.7,-1.72084568816899E-14,0.));
#565=CARTESIAN_POINT('Origin',(0.,-1.77635683940025E-14,0.));
#566=CARTESIAN_POINT('Origin',(0.,30.168784161749,0.));
#567=CARTESIAN_POINT('',(36.7,60.3375683234981,0.));
#568=CARTESIAN_POINT('Origin',(0.,60.3375683234981,0.));
#569=CARTESIAN_POINT('Origin',(0.,62.0875683234981,0.));
#570=CARTESIAN_POINT('',(37.75,63.8375683234981,0.));
#571=CARTESIAN_POINT('Origin',(0.,63.8375683234981,0.));
#572=CARTESIAN_POINT('Origin',(0.,94.2500000000291,0.));
#573=CARTESIAN_POINT('',(37.7499999999709,97.5000000000291,0.));
#574=CARTESIAN_POINT('Origin',(0.,97.5000000000291,0.));
#575=CARTESIAN_POINT('Origin',(0.,97.5000000000291,0.));
#576=CARTESIAN_POINT('',(38.7499999999709,98.5000000000291,0.));
#577=CARTESIAN_POINT('Origin',(0.,98.5000000000291,0.));
#578=CARTESIAN_POINT('Origin',(42.,98.5000000000291,0.));
#579=CARTESIAN_POINT('',(42.,98.5000000000291,0.));
#580=CARTESIAN_POINT('Origin',(0.,98.5000000000291,0.));
#581=CARTESIAN_POINT('Origin',(0.,99.0000000000291,0.));
#582=CARTESIAN_POINT('',(42.5,99.0000000000291,0.));
#583=CARTESIAN_POINT('Origin',(0.,99.0000000000291,0.));
#584=CARTESIAN_POINT('Origin',(0.,102.5,0.));
#585=CARTESIAN_POINT('',(42.5,105.999999999971,0.));
#586=CARTESIAN_POINT('Origin',(0.,105.999999999971,0.));
#587=CARTESIAN_POINT('Origin',(0.,105.999999999971,0.));
#588=CARTESIAN_POINT('',(42.,106.499999999971,0.));
#589=CARTESIAN_POINT('Origin',(0.,106.499999999971,0.));
#590=CARTESIAN_POINT('Origin',(38.7499999999709,106.499999999971,0.));
#591=CARTESIAN_POINT('',(38.7499999999709,106.499999999971,0.));
#592=CARTESIAN_POINT('Origin',(0.,106.499999999971,0.));
#593=CARTESIAN_POINT('Origin',(0.,107.499999999971,0.));
#594=CARTESIAN_POINT('',(37.7499999999709,107.499999999971,0.));
#595=CARTESIAN_POINT('Origin',(0.,107.499999999971,0.));
#596=CARTESIAN_POINT('Origin',(0.,109.999999999985,0.));
#597=CARTESIAN_POINT('',(37.7499999999709,112.5,0.));
#598=CARTESIAN_POINT('Origin',(0.,112.5,0.));
#599=CARTESIAN_POINT('Origin',(39.75,112.5,0.));
#600=UNCERTAINTY_MEASURE_WITH_UNIT(LENGTH_MEASURE(0.01),#604,
'DISTANCE_ACCURACY_VALUE',
'Maximum model space distance between geometric entities at asserted c
onnectivities');
#601=UNCERTAINTY_MEASURE_WITH_UNIT(LENGTH_MEASURE(1.E-6),#604,
'DISTANCE_ACCURACY_VALUE',
'Maximum model space distance between geometric entities at asserted c
onnectivities');
#602=(
GEOMETRIC_REPRESENTATION_CONTEXT(3)
GLOBAL_UNCERTAINTY_ASSIGNED_CONTEXT((#600))
GLOBAL_UNIT_ASSIGNED_CONTEXT((#604,#607,#605))
REPRESENTATION_CONTEXT('','3D')
);
#603=(
GEOMETRIC_REPRESENTATION_CONTEXT(3)
GLOBAL_UNCERTAINTY_ASSIGNED_CONTEXT((#601))
GLOBAL_UNIT_ASSIGNED_CONTEXT((#604,#607,#605))
REPRESENTATION_CONTEXT('','3D')
);
#604=(
LENGTH_UNIT()
NAMED_UNIT(*)
SI_UNIT(.MILLI.,.METRE.)
);
#605=(
NAMED_UNIT(*)
SI_UNIT($,.STERADIAN.)
SOLID_ANGLE_UNIT()
);
#606=DIMENSIONAL_EXPONENTS(0.,0.,0.,0.,0.,0.,0.);
#607=(
CONVERSION_BASED_UNIT('degree',#609)
NAMED_UNIT(#606)
PLANE_ANGLE_UNIT()
);
#608=(
NAMED_UNIT(*)
PLANE_ANGLE_UNIT()
SI_UNIT($,.RADIAN.)
);
#609=PLANE_ANGLE_MEASURE_WITH_UNIT(PLANE_ANGLE_MEASURE(0.01745329252),#608);
#610=SHAPE_DEFINITION_REPRESENTATION(#611,#612);
#611=PRODUCT_DEFINITION_SHAPE('',$,#614);
#612=SHAPE_REPRESENTATION('',(#335),#602);
#613=PRODUCT_DEFINITION_CONTEXT('part definition',#618,'design');
#614=PRODUCT_DEFINITION('333830 SKOLANsafe Anschluss an HT DN_OD 78',
'333830 SKOLANsafe Anschluss an HT DN_OD 78',#615,#613);
#615=PRODUCT_DEFINITION_FORMATION('',$,#620);
#616=PRODUCT_RELATED_PRODUCT_CATEGORY(
'333830 SKOLANsafe Anschluss an HT DN_OD 78',
'333830 SKOLANsafe Anschluss an HT DN_OD 78',(#620));
#617=APPLICATION_PROTOCOL_DEFINITION('international standard',
'automotive_design',2009,#618);
#618=APPLICATION_CONTEXT(
'Core Data for Automotive Mechanical Design Process');
#619=PRODUCT_CONTEXT('part definition',#618,'mechanical');
#620=PRODUCT('333830 SKOLANsafe Anschluss an HT DN_OD 78',
'333830 SKOLANsafe Anschluss an HT DN_OD 78',$,(#619));
#621=PRESENTATION_STYLE_ASSIGNMENT((#622));
#622=SURFACE_STYLE_USAGE(.BOTH.,#623);
#623=SURFACE_SIDE_STYLE('',(#624));
#624=SURFACE_STYLE_FILL_AREA(#625);
#625=FILL_AREA_STYLE('',(#626));
#626=FILL_AREA_STYLE_COLOUR('',#627);
#627=COLOUR_RGB('',0.749019607843137,0.749019607843137,0.749019607843137);
ENDSEC;
END-ISO-10303-21;
