ISO-10303-21;
HEADER;
/* Generated by software containing ST-Developer
 * from STEP Tools, Inc. (www.steptools.com) 
 */

FILE_DESCRIPTION(
/* description */ (''),
/* implementation_level */ '2;1');

FILE_NAME(
/* name */ 
'Y:\\ACad-Dateien\\Ostendorf\\Skolan Safe\\Kundenzeichnung\\332070 SKO
LANsafeEM Passl\X\E4ngen DN_OD 58x3000.stp',
/* time_stamp */ '2018-01-09T07:34:49+01:00',
/* author */ ('user1'),
/* organization */ (''),
/* preprocessor_version */ 'ST-DEVELOPER v16.1',
/* originating_system */ 'Autodesk Inventor 2016',
/* authorisation */ '');

FILE_SCHEMA (('AUTOMOTIVE_DESIGN { 1 0 10303 214 3 1 1 }'));
ENDSEC;

DATA;
#10=MECHANICAL_DESIGN_GEOMETRIC_PRESENTATION_REPRESENTATION('',(#13),#611);
#11=SHAPE_REPRESENTATION_RELATIONSHIP('SRR','None',#620,#12);
#12=ADVANCED_BREP_SHAPE_REPRESENTATION('',(#14),#610);
#13=STYLED_ITEM('',(#629),#14);
#14=MANIFOLD_SOLID_BREP('Volumenk\X\F6rper1',#324);
#15=(
BOUNDED_CURVE()
B_SPLINE_CURVE(2,(#564,#565,#566),.UNSPECIFIED.,.F.,.F.)
B_SPLINE_CURVE_WITH_KNOTS((3,3),(-0.148234583463792,0.148234583463792),
 .UNSPECIFIED.)
CURVE()
GEOMETRIC_REPRESENTATION_ITEM()
RATIONAL_B_SPLINE_CURVE((1.,0.989033357500398,1.))
REPRESENTATION_ITEM('')
);
#16=(
BOUNDED_SURFACE()
B_SPLINE_SURFACE(2,2,((#533,#534,#535,#536,#537,#538,#539,#540,#541),(#542,
#543,#544,#545,#546,#547,#548,#549,#550),(#551,#552,#553,#554,#555,#556,
#557,#558,#559)),.UNSPECIFIED.,.F.,.T.,.F.)
B_SPLINE_SURFACE_WITH_KNOTS((3,3),(3,2,2,2,3),(-0.148234583463792,0.148234583463792),
(-3.14159265358979,-1.5707963267949,0.,1.5707963267949,3.14159265358979),
 .UNSPECIFIED.)
GEOMETRIC_REPRESENTATION_ITEM()
RATIONAL_B_SPLINE_SURFACE(((1.,0.707106781186548,1.,0.707106781186548,1.,
0.707106781186548,1.,0.707106781186548,1.),(0.989033357500398,0.69935219390823,
0.989033357500398,0.69935219390823,0.989033357500398,0.69935219390823,0.989033357500398,
0.69935219390823,0.989033357500398),(1.,0.707106781186548,1.,0.707106781186548,
1.,0.707106781186548,1.,0.707106781186548,1.)))
REPRESENTATION_ITEM('')
SURFACE()
);
#17=PLANE('',#342);
#18=CONICAL_SURFACE('',#331,26.9785533905933,45.0000000000006);
#19=CONICAL_SURFACE('',#338,30.8785533905933,45.0000000000002);
#20=CONICAL_SURFACE('',#366,31.2967889356869,85.0000000000071);
#21=CONICAL_SURFACE('',#374,31.3054673358513,82.9999999999941);
#22=CYLINDRICAL_SURFACE('',#329,25.);
#23=CYLINDRICAL_SURFACE('',#336,29.0000000000005);
#24=CYLINDRICAL_SURFACE('',#357,33.05);
#25=CYLINDRICAL_SURFACE('',#362,29.25);
#26=CYLINDRICAL_SURFACE('',#370,33.8);
#27=CYLINDRICAL_SURFACE('',#378,29.25);
#28=FACE_BOUND('',#82,.T.);
#29=FACE_BOUND('',#84,.T.);
#30=FACE_BOUND('',#86,.T.);
#31=FACE_BOUND('',#88,.T.);
#32=FACE_BOUND('',#90,.T.);
#33=FACE_BOUND('',#92,.T.);
#34=FACE_BOUND('',#94,.T.);
#35=FACE_BOUND('',#96,.T.);
#36=FACE_BOUND('',#98,.T.);
#37=FACE_BOUND('',#100,.T.);
#38=FACE_BOUND('',#102,.T.);
#39=FACE_BOUND('',#105,.T.);
#40=FACE_BOUND('',#107,.T.);
#41=FACE_BOUND('',#109,.T.);
#42=FACE_BOUND('',#111,.T.);
#43=FACE_BOUND('',#113,.T.);
#44=FACE_BOUND('',#115,.T.);
#45=FACE_BOUND('',#117,.T.);
#46=FACE_BOUND('',#119,.T.);
#47=FACE_BOUND('',#121,.T.);
#48=FACE_BOUND('',#123,.T.);
#49=FACE_BOUND('',#125,.T.);
#50=FACE_BOUND('',#127,.T.);
#51=FACE_BOUND('',#129,.T.);
#52=FACE_BOUND('',#131,.T.);
#53=FACE_BOUND('',#133,.T.);
#54=FACE_OUTER_BOUND('',#81,.T.);
#55=FACE_OUTER_BOUND('',#83,.T.);
#56=FACE_OUTER_BOUND('',#85,.T.);
#57=FACE_OUTER_BOUND('',#87,.T.);
#58=FACE_OUTER_BOUND('',#89,.T.);
#59=FACE_OUTER_BOUND('',#91,.T.);
#60=FACE_OUTER_BOUND('',#93,.T.);
#61=FACE_OUTER_BOUND('',#95,.T.);
#62=FACE_OUTER_BOUND('',#97,.T.);
#63=FACE_OUTER_BOUND('',#99,.T.);
#64=FACE_OUTER_BOUND('',#101,.T.);
#65=FACE_OUTER_BOUND('',#103,.T.);
#66=FACE_OUTER_BOUND('',#104,.T.);
#67=FACE_OUTER_BOUND('',#106,.T.);
#68=FACE_OUTER_BOUND('',#108,.T.);
#69=FACE_OUTER_BOUND('',#110,.T.);
#70=FACE_OUTER_BOUND('',#112,.T.);
#71=FACE_OUTER_BOUND('',#114,.T.);
#72=FACE_OUTER_BOUND('',#116,.T.);
#73=FACE_OUTER_BOUND('',#118,.T.);
#74=FACE_OUTER_BOUND('',#120,.T.);
#75=FACE_OUTER_BOUND('',#122,.T.);
#76=FACE_OUTER_BOUND('',#124,.T.);
#77=FACE_OUTER_BOUND('',#126,.T.);
#78=FACE_OUTER_BOUND('',#128,.T.);
#79=FACE_OUTER_BOUND('',#130,.T.);
#80=FACE_OUTER_BOUND('',#132,.T.);
#81=EDGE_LOOP('',(#222));
#82=EDGE_LOOP('',(#223));
#83=EDGE_LOOP('',(#224));
#84=EDGE_LOOP('',(#225));
#85=EDGE_LOOP('',(#226));
#86=EDGE_LOOP('',(#227));
#87=EDGE_LOOP('',(#228));
#88=EDGE_LOOP('',(#229));
#89=EDGE_LOOP('',(#230));
#90=EDGE_LOOP('',(#231));
#91=EDGE_LOOP('',(#232));
#92=EDGE_LOOP('',(#233));
#93=EDGE_LOOP('',(#234));
#94=EDGE_LOOP('',(#235));
#95=EDGE_LOOP('',(#236));
#96=EDGE_LOOP('',(#237));
#97=EDGE_LOOP('',(#238));
#98=EDGE_LOOP('',(#239));
#99=EDGE_LOOP('',(#240));
#100=EDGE_LOOP('',(#241));
#101=EDGE_LOOP('',(#242));
#102=EDGE_LOOP('',(#243,#244));
#103=EDGE_LOOP('',(#245,#246,#247,#248,#249,#250));
#104=EDGE_LOOP('',(#251,#252));
#105=EDGE_LOOP('',(#253));
#106=EDGE_LOOP('',(#254));
#107=EDGE_LOOP('',(#255));
#108=EDGE_LOOP('',(#256));
#109=EDGE_LOOP('',(#257));
#110=EDGE_LOOP('',(#258));
#111=EDGE_LOOP('',(#259));
#112=EDGE_LOOP('',(#260));
#113=EDGE_LOOP('',(#261));
#114=EDGE_LOOP('',(#262));
#115=EDGE_LOOP('',(#263));
#116=EDGE_LOOP('',(#264));
#117=EDGE_LOOP('',(#265));
#118=EDGE_LOOP('',(#266));
#119=EDGE_LOOP('',(#267));
#120=EDGE_LOOP('',(#268));
#121=EDGE_LOOP('',(#269));
#122=EDGE_LOOP('',(#270));
#123=EDGE_LOOP('',(#271));
#124=EDGE_LOOP('',(#272));
#125=EDGE_LOOP('',(#273));
#126=EDGE_LOOP('',(#274));
#127=EDGE_LOOP('',(#275));
#128=EDGE_LOOP('',(#276));
#129=EDGE_LOOP('',(#277));
#130=EDGE_LOOP('',(#278));
#131=EDGE_LOOP('',(#279));
#132=EDGE_LOOP('',(#280));
#133=EDGE_LOOP('',(#281));
#134=CIRCLE('',#327,25.);
#135=CIRCLE('',#328,25.2928932188133);
#136=CIRCLE('',#330,25.0000000000013);
#137=CIRCLE('',#332,28.9571067811865);
#138=CIRCLE('',#334,29.2928932188141);
#139=CIRCLE('',#335,29.0000000000005);
#140=CIRCLE('',#337,29.);
#141=CIRCLE('',#339,32.7571067811866);
#142=CIRCLE('',#341,26.746794344809);
#143=CIRCLE('',#344,30.25);
#144=CIRCLE('',#345,33.6132926319048);
#145=CIRCLE('',#347,35.1582068615149);
#146=CIRCLE('',#349,36.8435841187631);
#147=CIRCLE('',#350,36.8435841187631);
#148=CIRCLE('',#351,36.8435841187631);
#149=CIRCLE('',#352,36.8435841187631);
#150=CIRCLE('',#354,34.9742086656305);
#151=CIRCLE('',#356,33.05);
#152=CIRCLE('',#358,33.05);
#153=CIRCLE('',#361,29.25);
#154=CIRCLE('',#363,29.25);
#155=CIRCLE('',#365,30.1628442572523);
#156=CIRCLE('',#367,32.4307336141215);
#157=CIRCLE('',#369,33.8);
#158=CIRCLE('',#371,33.8);
#159=CIRCLE('',#373,32.4828040151077);
#160=CIRCLE('',#375,30.1281306565949);
#161=CIRCLE('',#377,29.25);
#162=CIRCLE('',#379,29.25);
#163=VERTEX_POINT('',#495);
#164=VERTEX_POINT('',#497);
#165=VERTEX_POINT('',#500);
#166=VERTEX_POINT('',#503);
#167=VERTEX_POINT('',#506);
#168=VERTEX_POINT('',#508);
#169=VERTEX_POINT('',#511);
#170=VERTEX_POINT('',#514);
#171=VERTEX_POINT('',#517);
#172=VERTEX_POINT('',#521);
#173=VERTEX_POINT('',#523);
#174=VERTEX_POINT('',#526);
#175=VERTEX_POINT('',#529);
#176=VERTEX_POINT('',#530);
#177=VERTEX_POINT('',#560);
#178=VERTEX_POINT('',#561);
#179=VERTEX_POINT('',#568);
#180=VERTEX_POINT('',#571);
#181=VERTEX_POINT('',#574);
#182=VERTEX_POINT('',#578);
#183=VERTEX_POINT('',#581);
#184=VERTEX_POINT('',#584);
#185=VERTEX_POINT('',#587);
#186=VERTEX_POINT('',#590);
#187=VERTEX_POINT('',#593);
#188=VERTEX_POINT('',#596);
#189=VERTEX_POINT('',#599);
#190=VERTEX_POINT('',#602);
#191=VERTEX_POINT('',#605);
#192=EDGE_CURVE('',#163,#163,#134,.T.);
#193=EDGE_CURVE('',#164,#164,#135,.T.);
#194=EDGE_CURVE('',#165,#165,#136,.T.);
#195=EDGE_CURVE('',#166,#166,#137,.T.);
#196=EDGE_CURVE('',#167,#167,#138,.T.);
#197=EDGE_CURVE('',#168,#168,#139,.T.);
#198=EDGE_CURVE('',#169,#169,#140,.T.);
#199=EDGE_CURVE('',#170,#170,#141,.T.);
#200=EDGE_CURVE('',#171,#171,#142,.T.);
#201=EDGE_CURVE('',#172,#172,#143,.T.);
#202=EDGE_CURVE('',#173,#173,#144,.T.);
#203=EDGE_CURVE('',#174,#174,#145,.T.);
#204=EDGE_CURVE('',#175,#176,#146,.T.);
#205=EDGE_CURVE('',#176,#175,#147,.T.);
#206=EDGE_CURVE('',#177,#178,#148,.T.);
#207=EDGE_CURVE('',#178,#177,#149,.T.);
#208=EDGE_CURVE('',#178,#176,#15,.T.);
#209=EDGE_CURVE('',#179,#179,#150,.T.);
#210=EDGE_CURVE('',#180,#180,#151,.T.);
#211=EDGE_CURVE('',#181,#181,#152,.T.);
#212=EDGE_CURVE('',#182,#182,#153,.T.);
#213=EDGE_CURVE('',#183,#183,#154,.T.);
#214=EDGE_CURVE('',#184,#184,#155,.T.);
#215=EDGE_CURVE('',#185,#185,#156,.T.);
#216=EDGE_CURVE('',#186,#186,#157,.T.);
#217=EDGE_CURVE('',#187,#187,#158,.T.);
#218=EDGE_CURVE('',#188,#188,#159,.T.);
#219=EDGE_CURVE('',#189,#189,#160,.T.);
#220=EDGE_CURVE('',#190,#190,#161,.T.);
#221=EDGE_CURVE('',#191,#191,#162,.T.);
#222=ORIENTED_EDGE('',*,*,#192,.T.);
#223=ORIENTED_EDGE('',*,*,#193,.T.);
#224=ORIENTED_EDGE('',*,*,#194,.T.);
#225=ORIENTED_EDGE('',*,*,#192,.F.);
#226=ORIENTED_EDGE('',*,*,#195,.F.);
#227=ORIENTED_EDGE('',*,*,#193,.F.);
#228=ORIENTED_EDGE('',*,*,#196,.T.);
#229=ORIENTED_EDGE('',*,*,#197,.T.);
#230=ORIENTED_EDGE('',*,*,#198,.F.);
#231=ORIENTED_EDGE('',*,*,#197,.F.);
#232=ORIENTED_EDGE('',*,*,#199,.T.);
#233=ORIENTED_EDGE('',*,*,#196,.F.);
#234=ORIENTED_EDGE('',*,*,#198,.T.);
#235=ORIENTED_EDGE('',*,*,#200,.F.);
#236=ORIENTED_EDGE('',*,*,#200,.T.);
#237=ORIENTED_EDGE('',*,*,#194,.F.);
#238=ORIENTED_EDGE('',*,*,#201,.T.);
#239=ORIENTED_EDGE('',*,*,#202,.F.);
#240=ORIENTED_EDGE('',*,*,#202,.T.);
#241=ORIENTED_EDGE('',*,*,#203,.F.);
#242=ORIENTED_EDGE('',*,*,#203,.T.);
#243=ORIENTED_EDGE('',*,*,#204,.F.);
#244=ORIENTED_EDGE('',*,*,#205,.F.);
#245=ORIENTED_EDGE('',*,*,#206,.F.);
#246=ORIENTED_EDGE('',*,*,#207,.F.);
#247=ORIENTED_EDGE('',*,*,#208,.T.);
#248=ORIENTED_EDGE('',*,*,#205,.T.);
#249=ORIENTED_EDGE('',*,*,#204,.T.);
#250=ORIENTED_EDGE('',*,*,#208,.F.);
#251=ORIENTED_EDGE('',*,*,#206,.T.);
#252=ORIENTED_EDGE('',*,*,#207,.T.);
#253=ORIENTED_EDGE('',*,*,#209,.F.);
#254=ORIENTED_EDGE('',*,*,#209,.T.);
#255=ORIENTED_EDGE('',*,*,#210,.F.);
#256=ORIENTED_EDGE('',*,*,#210,.T.);
#257=ORIENTED_EDGE('',*,*,#211,.F.);
#258=ORIENTED_EDGE('',*,*,#211,.T.);
#259=ORIENTED_EDGE('',*,*,#199,.F.);
#260=ORIENTED_EDGE('',*,*,#195,.T.);
#261=ORIENTED_EDGE('',*,*,#212,.F.);
#262=ORIENTED_EDGE('',*,*,#212,.T.);
#263=ORIENTED_EDGE('',*,*,#213,.F.);
#264=ORIENTED_EDGE('',*,*,#213,.T.);
#265=ORIENTED_EDGE('',*,*,#214,.F.);
#266=ORIENTED_EDGE('',*,*,#214,.T.);
#267=ORIENTED_EDGE('',*,*,#215,.F.);
#268=ORIENTED_EDGE('',*,*,#215,.T.);
#269=ORIENTED_EDGE('',*,*,#216,.F.);
#270=ORIENTED_EDGE('',*,*,#216,.T.);
#271=ORIENTED_EDGE('',*,*,#217,.F.);
#272=ORIENTED_EDGE('',*,*,#217,.T.);
#273=ORIENTED_EDGE('',*,*,#218,.F.);
#274=ORIENTED_EDGE('',*,*,#218,.T.);
#275=ORIENTED_EDGE('',*,*,#219,.F.);
#276=ORIENTED_EDGE('',*,*,#219,.T.);
#277=ORIENTED_EDGE('',*,*,#220,.F.);
#278=ORIENTED_EDGE('',*,*,#220,.T.);
#279=ORIENTED_EDGE('',*,*,#221,.F.);
#280=ORIENTED_EDGE('',*,*,#221,.T.);
#281=ORIENTED_EDGE('',*,*,#201,.F.);
#282=TOROIDAL_SURFACE('',#326,26.,1.);
#283=TOROIDAL_SURFACE('',#333,30.0000000000005,1.);
#284=TOROIDAL_SURFACE('',#340,17.,12.);
#285=TOROIDAL_SURFACE('',#343,30.25,3.5);
#286=TOROIDAL_SURFACE('',#346,38.4179963917687,5.);
#287=TOROIDAL_SURFACE('',#348,31.8984173312611,5.);
#288=TOROIDAL_SURFACE('',#353,31.8984173312611,5.);
#289=TOROIDAL_SURFACE('',#355,38.05,5.);
#290=TOROIDAL_SURFACE('',#359,32.05,1.);
#291=TOROIDAL_SURFACE('',#360,28.25,1.);
#292=TOROIDAL_SURFACE('',#364,30.25,0.99999999999999);
#293=TOROIDAL_SURFACE('',#368,32.3,1.5);
#294=TOROIDAL_SURFACE('',#372,32.3,1.5);
#295=TOROIDAL_SURFACE('',#376,30.25,1.);
#296=TOROIDAL_SURFACE('',#380,30.25,1.00000000000005);
#297=ADVANCED_FACE('',(#54,#28),#282,.T.);
#298=ADVANCED_FACE('',(#55,#29),#22,.F.);
#299=ADVANCED_FACE('',(#56,#30),#18,.F.);
#300=ADVANCED_FACE('',(#57,#31),#283,.F.);
#301=ADVANCED_FACE('',(#58,#32),#23,.T.);
#302=ADVANCED_FACE('',(#59,#33),#19,.T.);
#303=ADVANCED_FACE('',(#60,#34),#284,.T.);
#304=ADVANCED_FACE('',(#61,#35),#17,.T.);
#305=ADVANCED_FACE('',(#62,#36),#285,.T.);
#306=ADVANCED_FACE('',(#63,#37),#286,.F.);
#307=ADVANCED_FACE('',(#64,#38),#287,.T.);
#308=ADVANCED_FACE('',(#65),#16,.F.);
#309=ADVANCED_FACE('',(#66,#39),#288,.T.);
#310=ADVANCED_FACE('',(#67,#40),#289,.F.);
#311=ADVANCED_FACE('',(#68,#41),#24,.T.);
#312=ADVANCED_FACE('',(#69,#42),#290,.T.);
#313=ADVANCED_FACE('',(#70,#43),#291,.F.);
#314=ADVANCED_FACE('',(#71,#44),#25,.F.);
#315=ADVANCED_FACE('',(#72,#45),#292,.T.);
#316=ADVANCED_FACE('',(#73,#46),#20,.F.);
#317=ADVANCED_FACE('',(#74,#47),#293,.F.);
#318=ADVANCED_FACE('',(#75,#48),#26,.F.);
#319=ADVANCED_FACE('',(#76,#49),#294,.F.);
#320=ADVANCED_FACE('',(#77,#50),#21,.F.);
#321=ADVANCED_FACE('',(#78,#51),#295,.T.);
#322=ADVANCED_FACE('',(#79,#52),#27,.F.);
#323=ADVANCED_FACE('',(#80,#53),#296,.T.);
#324=CLOSED_SHELL('',(#297,#298,#299,#300,#301,#302,#303,#304,#305,#306,
#307,#308,#309,#310,#311,#312,#313,#314,#315,#316,#317,#318,#319,#320,#321,
#322,#323));
#325=AXIS2_PLACEMENT_3D('placement',#493,#381,#382);
#326=AXIS2_PLACEMENT_3D('',#494,#383,#384);
#327=AXIS2_PLACEMENT_3D('',#496,#385,#386);
#328=AXIS2_PLACEMENT_3D('',#498,#387,#388);
#329=AXIS2_PLACEMENT_3D('',#499,#389,#390);
#330=AXIS2_PLACEMENT_3D('',#501,#391,#392);
#331=AXIS2_PLACEMENT_3D('',#502,#393,#394);
#332=AXIS2_PLACEMENT_3D('',#504,#395,#396);
#333=AXIS2_PLACEMENT_3D('',#505,#397,#398);
#334=AXIS2_PLACEMENT_3D('',#507,#399,#400);
#335=AXIS2_PLACEMENT_3D('',#509,#401,#402);
#336=AXIS2_PLACEMENT_3D('',#510,#403,#404);
#337=AXIS2_PLACEMENT_3D('',#512,#405,#406);
#338=AXIS2_PLACEMENT_3D('',#513,#407,#408);
#339=AXIS2_PLACEMENT_3D('',#515,#409,#410);
#340=AXIS2_PLACEMENT_3D('',#516,#411,#412);
#341=AXIS2_PLACEMENT_3D('',#518,#413,#414);
#342=AXIS2_PLACEMENT_3D('',#519,#415,#416);
#343=AXIS2_PLACEMENT_3D('',#520,#417,#418);
#344=AXIS2_PLACEMENT_3D('',#522,#419,#420);
#345=AXIS2_PLACEMENT_3D('',#524,#421,#422);
#346=AXIS2_PLACEMENT_3D('',#525,#423,#424);
#347=AXIS2_PLACEMENT_3D('',#527,#425,#426);
#348=AXIS2_PLACEMENT_3D('',#528,#427,#428);
#349=AXIS2_PLACEMENT_3D('',#531,#429,#430);
#350=AXIS2_PLACEMENT_3D('',#532,#431,#432);
#351=AXIS2_PLACEMENT_3D('',#562,#433,#434);
#352=AXIS2_PLACEMENT_3D('',#563,#435,#436);
#353=AXIS2_PLACEMENT_3D('',#567,#437,#438);
#354=AXIS2_PLACEMENT_3D('',#569,#439,#440);
#355=AXIS2_PLACEMENT_3D('',#570,#441,#442);
#356=AXIS2_PLACEMENT_3D('',#572,#443,#444);
#357=AXIS2_PLACEMENT_3D('',#573,#445,#446);
#358=AXIS2_PLACEMENT_3D('',#575,#447,#448);
#359=AXIS2_PLACEMENT_3D('',#576,#449,#450);
#360=AXIS2_PLACEMENT_3D('',#577,#451,#452);
#361=AXIS2_PLACEMENT_3D('',#579,#453,#454);
#362=AXIS2_PLACEMENT_3D('',#580,#455,#456);
#363=AXIS2_PLACEMENT_3D('',#582,#457,#458);
#364=AXIS2_PLACEMENT_3D('',#583,#459,#460);
#365=AXIS2_PLACEMENT_3D('',#585,#461,#462);
#366=AXIS2_PLACEMENT_3D('',#586,#463,#464);
#367=AXIS2_PLACEMENT_3D('',#588,#465,#466);
#368=AXIS2_PLACEMENT_3D('',#589,#467,#468);
#369=AXIS2_PLACEMENT_3D('',#591,#469,#470);
#370=AXIS2_PLACEMENT_3D('',#592,#471,#472);
#371=AXIS2_PLACEMENT_3D('',#594,#473,#474);
#372=AXIS2_PLACEMENT_3D('',#595,#475,#476);
#373=AXIS2_PLACEMENT_3D('',#597,#477,#478);
#374=AXIS2_PLACEMENT_3D('',#598,#479,#480);
#375=AXIS2_PLACEMENT_3D('',#600,#481,#482);
#376=AXIS2_PLACEMENT_3D('',#601,#483,#484);
#377=AXIS2_PLACEMENT_3D('',#603,#485,#486);
#378=AXIS2_PLACEMENT_3D('',#604,#487,#488);
#379=AXIS2_PLACEMENT_3D('',#606,#489,#490);
#380=AXIS2_PLACEMENT_3D('',#607,#491,#492);
#381=DIRECTION('axis',(0.,0.,1.));
#382=DIRECTION('refdir',(1.,0.,0.));
#383=DIRECTION('center_axis',(0.,-1.,0.));
#384=DIRECTION('ref_axis',(0.,0.,-1.));
#385=DIRECTION('center_axis',(0.,-1.,0.));
#386=DIRECTION('ref_axis',(-1.,0.,1.22464679914735E-16));
#387=DIRECTION('center_axis',(0.,1.,0.));
#388=DIRECTION('ref_axis',(-1.,0.,0.));
#389=DIRECTION('center_axis',(0.,-1.,0.));
#390=DIRECTION('ref_axis',(1.,0.,0.));
#391=DIRECTION('center_axis',(0.,-1.,0.));
#392=DIRECTION('ref_axis',(1.,0.,0.));
#393=DIRECTION('center_axis',(0.,1.,0.));
#394=DIRECTION('ref_axis',(1.,0.,0.));
#395=DIRECTION('center_axis',(0.,-1.,0.));
#396=DIRECTION('ref_axis',(1.,0.,0.));
#397=DIRECTION('center_axis',(0.,-1.,0.));
#398=DIRECTION('ref_axis',(0.,0.,-1.));
#399=DIRECTION('center_axis',(0.,-1.,0.));
#400=DIRECTION('ref_axis',(-1.,0.,0.));
#401=DIRECTION('center_axis',(0.,1.,0.));
#402=DIRECTION('ref_axis',(-1.,0.,1.22464679914735E-16));
#403=DIRECTION('center_axis',(0.,-1.,0.));
#404=DIRECTION('ref_axis',(1.,0.,0.));
#405=DIRECTION('center_axis',(0.,-1.,0.));
#406=DIRECTION('ref_axis',(1.,0.,0.));
#407=DIRECTION('center_axis',(0.,1.,0.));
#408=DIRECTION('ref_axis',(1.,0.,0.));
#409=DIRECTION('center_axis',(0.,-1.,0.));
#410=DIRECTION('ref_axis',(1.,0.,0.));
#411=DIRECTION('center_axis',(0.,-1.,0.));
#412=DIRECTION('ref_axis',(0.,0.,-1.));
#413=DIRECTION('center_axis',(0.,-1.,0.));
#414=DIRECTION('ref_axis',(1.,0.,0.));
#415=DIRECTION('center_axis',(0.,-1.,0.));
#416=DIRECTION('ref_axis',(0.,0.,-1.));
#417=DIRECTION('center_axis',(0.,-1.,0.));
#418=DIRECTION('ref_axis',(0.,0.,-1.));
#419=DIRECTION('center_axis',(0.,-1.,0.));
#420=DIRECTION('ref_axis',(1.,0.,0.));
#421=DIRECTION('center_axis',(0.,-1.,0.));
#422=DIRECTION('ref_axis',(1.,0.,0.));
#423=DIRECTION('center_axis',(0.,-1.,0.));
#424=DIRECTION('ref_axis',(0.,0.,-1.));
#425=DIRECTION('center_axis',(0.,-1.,0.));
#426=DIRECTION('ref_axis',(1.,0.,0.));
#427=DIRECTION('center_axis',(0.,-1.,0.));
#428=DIRECTION('ref_axis',(0.,0.,-1.));
#429=DIRECTION('center_axis',(0.,-1.,0.));
#430=DIRECTION('ref_axis',(1.,0.,0.));
#431=DIRECTION('center_axis',(0.,-1.,0.));
#432=DIRECTION('ref_axis',(1.,0.,0.));
#433=DIRECTION('center_axis',(0.,-1.,0.));
#434=DIRECTION('ref_axis',(1.,0.,0.));
#435=DIRECTION('center_axis',(0.,-1.,0.));
#436=DIRECTION('ref_axis',(1.,0.,0.));
#437=DIRECTION('center_axis',(0.,-1.,0.));
#438=DIRECTION('ref_axis',(0.,0.,-1.));
#439=DIRECTION('center_axis',(0.,-1.,0.));
#440=DIRECTION('ref_axis',(1.,0.,0.));
#441=DIRECTION('center_axis',(0.,-1.,0.));
#442=DIRECTION('ref_axis',(0.,0.,-1.));
#443=DIRECTION('center_axis',(0.,-1.,0.));
#444=DIRECTION('ref_axis',(1.,0.,0.));
#445=DIRECTION('center_axis',(0.,-1.,0.));
#446=DIRECTION('ref_axis',(1.,0.,0.));
#447=DIRECTION('center_axis',(0.,-1.,0.));
#448=DIRECTION('ref_axis',(1.,0.,0.));
#449=DIRECTION('center_axis',(0.,-1.,0.));
#450=DIRECTION('ref_axis',(0.,0.,-1.));
#451=DIRECTION('center_axis',(0.,-1.,0.));
#452=DIRECTION('ref_axis',(0.,0.,-1.));
#453=DIRECTION('center_axis',(0.,-1.,0.));
#454=DIRECTION('ref_axis',(1.,0.,0.));
#455=DIRECTION('center_axis',(0.,-1.,0.));
#456=DIRECTION('ref_axis',(1.,0.,0.));
#457=DIRECTION('center_axis',(0.,-1.,0.));
#458=DIRECTION('ref_axis',(1.,0.,0.));
#459=DIRECTION('center_axis',(0.,-1.,0.));
#460=DIRECTION('ref_axis',(0.,0.,-1.));
#461=DIRECTION('center_axis',(0.,-1.,0.));
#462=DIRECTION('ref_axis',(1.,0.,0.));
#463=DIRECTION('center_axis',(0.,1.,0.));
#464=DIRECTION('ref_axis',(1.,0.,0.));
#465=DIRECTION('center_axis',(0.,-1.,0.));
#466=DIRECTION('ref_axis',(1.,0.,0.));
#467=DIRECTION('center_axis',(0.,-1.,0.));
#468=DIRECTION('ref_axis',(0.,0.,-1.));
#469=DIRECTION('center_axis',(0.,-1.,0.));
#470=DIRECTION('ref_axis',(1.,0.,0.));
#471=DIRECTION('center_axis',(0.,-1.,0.));
#472=DIRECTION('ref_axis',(1.,0.,0.));
#473=DIRECTION('center_axis',(0.,-1.,0.));
#474=DIRECTION('ref_axis',(1.,0.,0.));
#475=DIRECTION('center_axis',(0.,-1.,0.));
#476=DIRECTION('ref_axis',(0.,0.,-1.));
#477=DIRECTION('center_axis',(0.,-1.,0.));
#478=DIRECTION('ref_axis',(1.,0.,0.));
#479=DIRECTION('center_axis',(0.,-1.,0.));
#480=DIRECTION('ref_axis',(1.,0.,0.));
#481=DIRECTION('center_axis',(0.,-1.,0.));
#482=DIRECTION('ref_axis',(1.,0.,0.));
#483=DIRECTION('center_axis',(0.,-1.,0.));
#484=DIRECTION('ref_axis',(0.,0.,-1.));
#485=DIRECTION('center_axis',(0.,-1.,0.));
#486=DIRECTION('ref_axis',(1.,0.,0.));
#487=DIRECTION('center_axis',(0.,-1.,0.));
#488=DIRECTION('ref_axis',(1.,0.,0.));
#489=DIRECTION('center_axis',(0.,-1.,0.));
#490=DIRECTION('ref_axis',(1.,0.,0.));
#491=DIRECTION('center_axis',(0.,-1.,0.));
#492=DIRECTION('ref_axis',(0.,0.,-1.));
#493=CARTESIAN_POINT('',(0.,0.,0.));
#494=CARTESIAN_POINT('Origin',(0.,2999.73578643763,0.));
#495=CARTESIAN_POINT('',(25.,2999.73578643763,0.));
#496=CARTESIAN_POINT('Origin',(0.,2999.73578643763,0.));
#497=CARTESIAN_POINT('',(25.2928932188133,3000.44289321881,-6.19497214431911E-15));
#498=CARTESIAN_POINT('Origin',(0.,3000.44289321881,-3.09748607215955E-15));
#499=CARTESIAN_POINT('Origin',(0.,2999.46299423149,0.));
#500=CARTESIAN_POINT('',(25.0000000000013,0.,0.));
#501=CARTESIAN_POINT('Origin',(0.,0.,0.));
#502=CARTESIAN_POINT('Origin',(0.,3002.12855339059,0.));
#503=CARTESIAN_POINT('',(28.9571067811865,3004.10710678119,0.));
#504=CARTESIAN_POINT('Origin',(0.,3004.10710678119,0.));
#505=CARTESIAN_POINT('Origin',(0.,2998.36177490061,0.));
#506=CARTESIAN_POINT('',(29.2928932188141,2999.0688816818,0.));
#507=CARTESIAN_POINT('Origin',(0.,2999.0688816818,-3.58734479181859E-15));
#508=CARTESIAN_POINT('',(29.0000000000005,2998.36177490061,-7.10295143505477E-15));
#509=CARTESIAN_POINT('Origin',(0.,2998.36177490061,0.));
#510=CARTESIAN_POINT('Origin',(0.,1502.88799423149,0.));
#511=CARTESIAN_POINT('',(29.,7.00000000000001,0.));
#512=CARTESIAN_POINT('Origin',(0.,6.99999999999989,0.));
#513=CARTESIAN_POINT('Origin',(0.,3000.65454185358,0.));
#514=CARTESIAN_POINT('',(32.7571067811866,3002.53309524417,0.));
#515=CARTESIAN_POINT('Origin',(0.,3002.53309524417,0.));
#516=CARTESIAN_POINT('Origin',(0.,6.99999999999989,0.));
#517=CARTESIAN_POINT('',(26.746794344809,8.88178419700125E-15,0.));
#518=CARTESIAN_POINT('Origin',(0.,0.,0.));
#519=CARTESIAN_POINT('Origin',(25.0000000000013,1.68447631322441E-13,0.));
#520=CARTESIAN_POINT('Origin',(0.,3049.5,0.));
#521=CARTESIAN_POINT('',(30.25,3053.,0.));
#522=CARTESIAN_POINT('Origin',(0.,3053.,0.));
#523=CARTESIAN_POINT('',(33.6132926319048,3050.4686395987,0.));
#524=CARTESIAN_POINT('Origin',(0.,3050.4686395987,0.));
#525=CARTESIAN_POINT('Origin',(0.,3051.85241045399,0.));
#526=CARTESIAN_POINT('',(35.1582068615149,3048.06113465046,0.));
#527=CARTESIAN_POINT('Origin',(0.,3048.06113465046,0.));
#528=CARTESIAN_POINT('Origin',(0.,3044.26985884693,0.));
#529=CARTESIAN_POINT('',(36.8435841187631,3045.00832038539,0.));
#530=CARTESIAN_POINT('',(0.,3045.00832038539,36.8435841187631));
#531=CARTESIAN_POINT('Origin',(0.,3045.00832038539,0.));
#532=CARTESIAN_POINT('Origin',(0.,3045.00832038539,0.));
#533=CARTESIAN_POINT('Ctrl Pts',(0.,3045.00832038539,36.8435841187631));
#534=CARTESIAN_POINT('Ctrl Pts',(-36.8435841187631,3045.00832038539,36.8435841187631));
#535=CARTESIAN_POINT('Ctrl Pts',(-36.8435841187631,3045.00832038539,0.));
#536=CARTESIAN_POINT('Ctrl Pts',(-36.8435841187631,3045.00832038539,-36.8435841187631));
#537=CARTESIAN_POINT('Ctrl Pts',(0.,3045.00832038539,-36.8435841187631));
#538=CARTESIAN_POINT('Ctrl Pts',(36.8435841187631,3045.00832038539,-36.8435841187631));
#539=CARTESIAN_POINT('Ctrl Pts',(36.8435841187631,3045.00832038539,0.));
#540=CARTESIAN_POINT('Ctrl Pts',(36.8435841187631,3045.00832038539,36.8435841187631));
#541=CARTESIAN_POINT('Ctrl Pts',(0.,3045.00832038539,36.8435841187631));
#542=CARTESIAN_POINT('Ctrl Pts',(0.,3040.20832038539,37.560367907244));
#543=CARTESIAN_POINT('Ctrl Pts',(-37.560367907244,3040.20832038539,37.560367907244));
#544=CARTESIAN_POINT('Ctrl Pts',(-37.560367907244,3040.20832038539,0.));
#545=CARTESIAN_POINT('Ctrl Pts',(-37.560367907244,3040.20832038539,-37.560367907244));
#546=CARTESIAN_POINT('Ctrl Pts',(0.,3040.20832038539,-37.560367907244));
#547=CARTESIAN_POINT('Ctrl Pts',(37.560367907244,3040.20832038539,-37.560367907244));
#548=CARTESIAN_POINT('Ctrl Pts',(37.560367907244,3040.20832038539,0.));
#549=CARTESIAN_POINT('Ctrl Pts',(37.560367907244,3040.20832038539,37.560367907244));
#550=CARTESIAN_POINT('Ctrl Pts',(0.,3040.20832038539,37.560367907244));
#551=CARTESIAN_POINT('Ctrl Pts',(0.,3035.40832038539,36.8435841187631));
#552=CARTESIAN_POINT('Ctrl Pts',(-36.8435841187631,3035.40832038539,36.8435841187631));
#553=CARTESIAN_POINT('Ctrl Pts',(-36.8435841187631,3035.40832038539,0.));
#554=CARTESIAN_POINT('Ctrl Pts',(-36.8435841187631,3035.40832038539,-36.8435841187631));
#555=CARTESIAN_POINT('Ctrl Pts',(0.,3035.40832038539,-36.8435841187631));
#556=CARTESIAN_POINT('Ctrl Pts',(36.8435841187631,3035.40832038539,-36.8435841187631));
#557=CARTESIAN_POINT('Ctrl Pts',(36.8435841187631,3035.40832038539,0.));
#558=CARTESIAN_POINT('Ctrl Pts',(36.8435841187631,3035.40832038539,36.8435841187631));
#559=CARTESIAN_POINT('Ctrl Pts',(0.,3035.40832038539,36.8435841187631));
#560=CARTESIAN_POINT('',(36.8435841187631,3035.40832038539,0.));
#561=CARTESIAN_POINT('',(0.,3035.40832038539,36.8435841187631));
#562=CARTESIAN_POINT('Origin',(0.,3035.40832038539,0.));
#563=CARTESIAN_POINT('Origin',(0.,3035.40832038539,0.));
#564=CARTESIAN_POINT('Ctrl Pts',(0.,3035.40832038539,36.8435841187631));
#565=CARTESIAN_POINT('Ctrl Pts',(0.,3040.20832038539,37.560367907244));
#566=CARTESIAN_POINT('Ctrl Pts',(0.,3045.00832038539,36.8435841187631));
#567=CARTESIAN_POINT('Origin',(0.,3036.14678192385,0.));
#568=CARTESIAN_POINT('',(34.9742086656305,3032.20476370124,0.));
#569=CARTESIAN_POINT('Origin',(0.,3032.20476370124,0.));
#570=CARTESIAN_POINT('Origin',(0.,3028.26274547862,0.));
#571=CARTESIAN_POINT('',(33.05,3028.26274547862,0.));
#572=CARTESIAN_POINT('Origin',(0.,3028.26274547862,0.));
#573=CARTESIAN_POINT('Origin',(0.,3005.40187346612,0.));
#574=CARTESIAN_POINT('',(33.05,3003.24020202536,0.));
#575=CARTESIAN_POINT('Origin',(0.,3003.24020202536,0.));
#576=CARTESIAN_POINT('Origin',(0.,3003.24020202536,0.));
#577=CARTESIAN_POINT('Origin',(0.,3004.81421356237,0.));
#578=CARTESIAN_POINT('',(29.25,3004.81421356237,0.));
#579=CARTESIAN_POINT('Origin',(0.,3004.81421356237,0.));
#580=CARTESIAN_POINT('Origin',(0.,3028.54029323023,0.));
#581=CARTESIAN_POINT('',(29.25,3033.30459799748,0.));
#582=CARTESIAN_POINT('Origin',(0.,3033.30459799748,0.));
#583=CARTESIAN_POINT('Origin',(0.,3033.30459799748,0.));
#584=CARTESIAN_POINT('',(30.1628442572523,3034.30079269557,0.));
#585=CARTESIAN_POINT('Origin',(0.,3034.30079269557,0.));
#586=CARTESIAN_POINT('Origin',(0.,3034.4,0.));
#587=CARTESIAN_POINT('',(32.4307336141215,3034.49920730443,0.));
#588=CARTESIAN_POINT('Origin',(0.,3034.49920730443,0.));
#589=CARTESIAN_POINT('Origin',(0.,3035.99349935157,0.));
#590=CARTESIAN_POINT('',(33.8,3035.99349935157,0.));
#591=CARTESIAN_POINT('Origin',(0.,3035.99349935157,0.));
#592=CARTESIAN_POINT('Origin',(0.,3039.18006067845,0.));
#593=CARTESIAN_POINT('',(33.8,3042.36662200534,0.));
#594=CARTESIAN_POINT('Origin',(0.,3042.36662200534,0.));
#595=CARTESIAN_POINT('Origin',(0.,3042.36662200534,0.));
#596=CARTESIAN_POINT('',(32.4828040151077,3043.8554412328,0.));
#597=CARTESIAN_POINT('Origin',(0.,3043.8554412328,0.));
#598=CARTESIAN_POINT('Origin',(0.,3044.,0.));
#599=CARTESIAN_POINT('',(30.1281306565949,3044.1445587672,0.));
#600=CARTESIAN_POINT('Origin',(0.,3044.1445587672,0.));
#601=CARTESIAN_POINT('Origin',(0.,3045.13710491884,0.));
#602=CARTESIAN_POINT('',(29.25,3045.13710491884,0.));
#603=CARTESIAN_POINT('Origin',(0.,3045.13710491884,0.));
#604=CARTESIAN_POINT('Origin',(0.,3048.56855245942,0.));
#605=CARTESIAN_POINT('',(29.25,3052.,0.));
#606=CARTESIAN_POINT('Origin',(0.,3052.,0.));
#607=CARTESIAN_POINT('Origin',(0.,3052.,0.));
#608=UNCERTAINTY_MEASURE_WITH_UNIT(LENGTH_MEASURE(0.01),#612,
'DISTANCE_ACCURACY_VALUE',
'Maximum model space distance between geometric entities at asserted c
onnectivities');
#609=UNCERTAINTY_MEASURE_WITH_UNIT(LENGTH_MEASURE(1.E-6),#612,
'DISTANCE_ACCURACY_VALUE',
'Maximum model space distance between geometric entities at asserted c
onnectivities');
#610=(
GEOMETRIC_REPRESENTATION_CONTEXT(3)
GLOBAL_UNCERTAINTY_ASSIGNED_CONTEXT((#608))
GLOBAL_UNIT_ASSIGNED_CONTEXT((#612,#615,#613))
REPRESENTATION_CONTEXT('','3D')
);
#611=(
GEOMETRIC_REPRESENTATION_CONTEXT(3)
GLOBAL_UNCERTAINTY_ASSIGNED_CONTEXT((#609))
GLOBAL_UNIT_ASSIGNED_CONTEXT((#612,#615,#613))
REPRESENTATION_CONTEXT('','3D')
);
#612=(
LENGTH_UNIT()
NAMED_UNIT(*)
SI_UNIT(.MILLI.,.METRE.)
);
#613=(
NAMED_UNIT(*)
SI_UNIT($,.STERADIAN.)
SOLID_ANGLE_UNIT()
);
#614=DIMENSIONAL_EXPONENTS(0.,0.,0.,0.,0.,0.,0.);
#615=(
CONVERSION_BASED_UNIT('degree',#617)
NAMED_UNIT(#614)
PLANE_ANGLE_UNIT()
);
#616=(
NAMED_UNIT(*)
PLANE_ANGLE_UNIT()
SI_UNIT($,.RADIAN.)
);
#617=PLANE_ANGLE_MEASURE_WITH_UNIT(PLANE_ANGLE_MEASURE(0.01745329252),#616);
#618=SHAPE_DEFINITION_REPRESENTATION(#619,#620);
#619=PRODUCT_DEFINITION_SHAPE('',$,#622);
#620=SHAPE_REPRESENTATION('',(#325),#610);
#621=PRODUCT_DEFINITION_CONTEXT('part definition',#626,'design');
#622=PRODUCT_DEFINITION('332070 SKOLANsafeEM Passl\X\E4ngen DN_OD 58x3
000','332070 SKOLANsafeEM Passl\X\E4ngen DN_OD 58x3000',#623,#621);
#623=PRODUCT_DEFINITION_FORMATION('',$,#628);
#624=PRODUCT_RELATED_PRODUCT_CATEGORY(
'332070 SKOLANsafeEM Passl\X\E4ngen DN_OD 58x3000',
'332070 SKOLANsafeEM Passl\X\E4ngen DN_OD 58x3000',(#628));
#625=APPLICATION_PROTOCOL_DEFINITION('international standard',
'automotive_design',2009,#626);
#626=APPLICATION_CONTEXT(
'Core Data for Automotive Mechanical Design Process');
#627=PRODUCT_CONTEXT('part definition',#626,'mechanical');
#628=PRODUCT('332070 SKOLANsafeEM Passl\X\E4ngen DN_OD 58x3000',
'332070 SKOLANsafeEM Passl\X\E4ngen DN_OD 58x3000',$,(#627));
#629=PRESENTATION_STYLE_ASSIGNMENT((#630));
#630=SURFACE_STYLE_USAGE(.BOTH.,#631);
#631=SURFACE_SIDE_STYLE('',(#632));
#632=SURFACE_STYLE_FILL_AREA(#633);
#633=FILL_AREA_STYLE('',(#634));
#634=FILL_AREA_STYLE_COLOUR('',#635);
#635=COLOUR_RGB('',0.749019607843137,0.749019607843137,0.749019607843137);
ENDSEC;
END-ISO-10303-21;
