ISO-10303-21;
HEADER;
/* Generated by software containing ST-Developer
 * from STEP Tools, Inc. (www.steptools.com) 
 */

FILE_DESCRIPTION(
/* description */ (''),
/* implementation_level */ '2;1');

FILE_NAME(
/* name */ 
'Y:\\ACad-Dateien\\Ostendorf\\HT safe\\Kundenzeichnung\\177620 HTsafeM
 DN_OD 160.stp',
/* time_stamp */ '2017-03-13T12:23:43+01:00',
/* author */ ('user1'),
/* organization */ (''),
/* preprocessor_version */ 'ST-DEVELOPER v16.1',
/* originating_system */ 'Autodesk Inventor 2016',
/* authorisation */ '');

FILE_SCHEMA (('AUTOMOTIVE_DESIGN { 1 0 10303 214 3 1 1 }'));
ENDSEC;

DATA;
#10=MECHANICAL_DESIGN_GEOMETRIC_PRESENTATION_REPRESENTATION('',(#13),#249);
#11=SHAPE_REPRESENTATION_RELATIONSHIP('SRR','None',#258,#12);
#12=ADVANCED_BREP_SHAPE_REPRESENTATION('',(#14),#248);
#13=STYLED_ITEM('',(#267),#14);
#14=MANIFOLD_SOLID_BREP('Volumenk\X\F6rper1',#138);
#15=CONICAL_SURFACE('',#152,79.2618275360686,14.9999999999999);
#16=TOROIDAL_SURFACE('',#144,84.,0.999999999999996);
#17=TOROIDAL_SURFACE('',#148,80.65,0.5);
#18=TOROIDAL_SURFACE('',#154,77.8906921589927,0.499999999999997);
#19=TOROIDAL_SURFACE('',#160,75.45,0.5);
#20=FACE_BOUND('',#47,.T.);
#21=FACE_BOUND('',#49,.T.);
#22=FACE_BOUND('',#51,.T.);
#23=FACE_BOUND('',#53,.T.);
#24=FACE_BOUND('',#55,.T.);
#25=FACE_BOUND('',#57,.T.);
#26=FACE_BOUND('',#59,.T.);
#27=FACE_BOUND('',#61,.T.);
#28=FACE_BOUND('',#63,.T.);
#29=FACE_BOUND('',#65,.T.);
#30=CYLINDRICAL_SURFACE('',#142,85.);
#31=CYLINDRICAL_SURFACE('',#150,80.15);
#32=CYLINDRICAL_SURFACE('',#158,75.95);
#33=FACE_OUTER_BOUND('',#45,.T.);
#34=FACE_OUTER_BOUND('',#46,.T.);
#35=FACE_OUTER_BOUND('',#48,.T.);
#36=FACE_OUTER_BOUND('',#50,.T.);
#37=FACE_OUTER_BOUND('',#52,.T.);
#38=FACE_OUTER_BOUND('',#54,.T.);
#39=FACE_OUTER_BOUND('',#56,.T.);
#40=FACE_OUTER_BOUND('',#58,.T.);
#41=FACE_OUTER_BOUND('',#60,.T.);
#42=FACE_OUTER_BOUND('',#62,.T.);
#43=FACE_OUTER_BOUND('',#64,.T.);
#44=FACE_OUTER_BOUND('',#66,.T.);
#45=EDGE_LOOP('',(#100));
#46=EDGE_LOOP('',(#101));
#47=EDGE_LOOP('',(#102));
#48=EDGE_LOOP('',(#103));
#49=EDGE_LOOP('',(#104));
#50=EDGE_LOOP('',(#105));
#51=EDGE_LOOP('',(#106));
#52=EDGE_LOOP('',(#107));
#53=EDGE_LOOP('',(#108));
#54=EDGE_LOOP('',(#109));
#55=EDGE_LOOP('',(#110));
#56=EDGE_LOOP('',(#111));
#57=EDGE_LOOP('',(#112));
#58=EDGE_LOOP('',(#113));
#59=EDGE_LOOP('',(#114));
#60=EDGE_LOOP('',(#115));
#61=EDGE_LOOP('',(#116));
#62=EDGE_LOOP('',(#117));
#63=EDGE_LOOP('',(#118));
#64=EDGE_LOOP('',(#119));
#65=EDGE_LOOP('',(#120));
#66=EDGE_LOOP('',(#121));
#67=CIRCLE('',#141,85.);
#68=CIRCLE('',#143,85.);
#69=CIRCLE('',#145,84.);
#70=CIRCLE('',#147,80.65);
#71=CIRCLE('',#149,80.15);
#72=CIRCLE('',#151,80.15);
#73=CIRCLE('',#153,78.3736550721372);
#74=CIRCLE('',#155,77.8906921589927);
#75=CIRCLE('',#157,75.95);
#76=CIRCLE('',#159,75.95);
#77=CIRCLE('',#161,75.45);
#78=VERTEX_POINT('',#213);
#79=VERTEX_POINT('',#216);
#80=VERTEX_POINT('',#219);
#81=VERTEX_POINT('',#222);
#82=VERTEX_POINT('',#225);
#83=VERTEX_POINT('',#228);
#84=VERTEX_POINT('',#231);
#85=VERTEX_POINT('',#234);
#86=VERTEX_POINT('',#237);
#87=VERTEX_POINT('',#240);
#88=VERTEX_POINT('',#243);
#89=EDGE_CURVE('',#78,#78,#67,.T.);
#90=EDGE_CURVE('',#79,#79,#68,.T.);
#91=EDGE_CURVE('',#80,#80,#69,.T.);
#92=EDGE_CURVE('',#81,#81,#70,.T.);
#93=EDGE_CURVE('',#82,#82,#71,.T.);
#94=EDGE_CURVE('',#83,#83,#72,.T.);
#95=EDGE_CURVE('',#84,#84,#73,.T.);
#96=EDGE_CURVE('',#85,#85,#74,.T.);
#97=EDGE_CURVE('',#86,#86,#75,.T.);
#98=EDGE_CURVE('',#87,#87,#76,.T.);
#99=EDGE_CURVE('',#88,#88,#77,.T.);
#100=ORIENTED_EDGE('',*,*,#89,.F.);
#101=ORIENTED_EDGE('',*,*,#89,.T.);
#102=ORIENTED_EDGE('',*,*,#90,.F.);
#103=ORIENTED_EDGE('',*,*,#90,.T.);
#104=ORIENTED_EDGE('',*,*,#91,.F.);
#105=ORIENTED_EDGE('',*,*,#91,.T.);
#106=ORIENTED_EDGE('',*,*,#92,.F.);
#107=ORIENTED_EDGE('',*,*,#92,.T.);
#108=ORIENTED_EDGE('',*,*,#93,.F.);
#109=ORIENTED_EDGE('',*,*,#93,.T.);
#110=ORIENTED_EDGE('',*,*,#94,.F.);
#111=ORIENTED_EDGE('',*,*,#94,.T.);
#112=ORIENTED_EDGE('',*,*,#95,.F.);
#113=ORIENTED_EDGE('',*,*,#95,.T.);
#114=ORIENTED_EDGE('',*,*,#96,.F.);
#115=ORIENTED_EDGE('',*,*,#96,.T.);
#116=ORIENTED_EDGE('',*,*,#97,.F.);
#117=ORIENTED_EDGE('',*,*,#97,.T.);
#118=ORIENTED_EDGE('',*,*,#98,.F.);
#119=ORIENTED_EDGE('',*,*,#98,.T.);
#120=ORIENTED_EDGE('',*,*,#99,.F.);
#121=ORIENTED_EDGE('',*,*,#99,.T.);
#122=PLANE('',#140);
#123=PLANE('',#146);
#124=PLANE('',#156);
#125=PLANE('',#162);
#126=ADVANCED_FACE('',(#33),#122,.T.);
#127=ADVANCED_FACE('',(#34,#20),#30,.T.);
#128=ADVANCED_FACE('',(#35,#21),#16,.T.);
#129=ADVANCED_FACE('',(#36,#22),#123,.T.);
#130=ADVANCED_FACE('',(#37,#23),#17,.F.);
#131=ADVANCED_FACE('',(#38,#24),#31,.T.);
#132=ADVANCED_FACE('',(#39,#25),#15,.T.);
#133=ADVANCED_FACE('',(#40,#26),#18,.T.);
#134=ADVANCED_FACE('',(#41,#27),#124,.T.);
#135=ADVANCED_FACE('',(#42,#28),#32,.F.);
#136=ADVANCED_FACE('',(#43,#29),#19,.F.);
#137=ADVANCED_FACE('',(#44),#125,.T.);
#138=CLOSED_SHELL('',(#126,#127,#128,#129,#130,#131,#132,#133,#134,#135,
#136,#137));
#139=AXIS2_PLACEMENT_3D('placement',#211,#163,#164);
#140=AXIS2_PLACEMENT_3D('',#212,#165,#166);
#141=AXIS2_PLACEMENT_3D('',#214,#167,#168);
#142=AXIS2_PLACEMENT_3D('',#215,#169,#170);
#143=AXIS2_PLACEMENT_3D('',#217,#171,#172);
#144=AXIS2_PLACEMENT_3D('',#218,#173,#174);
#145=AXIS2_PLACEMENT_3D('',#220,#175,#176);
#146=AXIS2_PLACEMENT_3D('',#221,#177,#178);
#147=AXIS2_PLACEMENT_3D('',#223,#179,#180);
#148=AXIS2_PLACEMENT_3D('',#224,#181,#182);
#149=AXIS2_PLACEMENT_3D('',#226,#183,#184);
#150=AXIS2_PLACEMENT_3D('',#227,#185,#186);
#151=AXIS2_PLACEMENT_3D('',#229,#187,#188);
#152=AXIS2_PLACEMENT_3D('',#230,#189,#190);
#153=AXIS2_PLACEMENT_3D('',#232,#191,#192);
#154=AXIS2_PLACEMENT_3D('',#233,#193,#194);
#155=AXIS2_PLACEMENT_3D('',#235,#195,#196);
#156=AXIS2_PLACEMENT_3D('',#236,#197,#198);
#157=AXIS2_PLACEMENT_3D('',#238,#199,#200);
#158=AXIS2_PLACEMENT_3D('',#239,#201,#202);
#159=AXIS2_PLACEMENT_3D('',#241,#203,#204);
#160=AXIS2_PLACEMENT_3D('',#242,#205,#206);
#161=AXIS2_PLACEMENT_3D('',#244,#207,#208);
#162=AXIS2_PLACEMENT_3D('',#245,#209,#210);
#163=DIRECTION('axis',(0.,0.,1.));
#164=DIRECTION('refdir',(1.,0.,0.));
#165=DIRECTION('center_axis',(0.,1.,0.));
#166=DIRECTION('ref_axis',(0.,0.,1.));
#167=DIRECTION('center_axis',(0.,-1.,0.));
#168=DIRECTION('ref_axis',(1.,0.,0.));
#169=DIRECTION('center_axis',(0.,-1.,0.));
#170=DIRECTION('ref_axis',(1.,0.,0.));
#171=DIRECTION('center_axis',(0.,-1.,0.));
#172=DIRECTION('ref_axis',(1.,0.,0.));
#173=DIRECTION('center_axis',(0.,-1.,0.));
#174=DIRECTION('ref_axis',(0.,0.,-1.));
#175=DIRECTION('center_axis',(0.,-1.,0.));
#176=DIRECTION('ref_axis',(1.,0.,0.));
#177=DIRECTION('center_axis',(0.,-1.,0.));
#178=DIRECTION('ref_axis',(0.,0.,-1.));
#179=DIRECTION('center_axis',(0.,-1.,0.));
#180=DIRECTION('ref_axis',(1.,0.,0.));
#181=DIRECTION('center_axis',(0.,-1.,0.));
#182=DIRECTION('ref_axis',(0.,0.,-1.));
#183=DIRECTION('center_axis',(0.,-1.,0.));
#184=DIRECTION('ref_axis',(1.,0.,0.));
#185=DIRECTION('center_axis',(0.,-1.,0.));
#186=DIRECTION('ref_axis',(1.,0.,0.));
#187=DIRECTION('center_axis',(0.,-1.,0.));
#188=DIRECTION('ref_axis',(1.,0.,0.));
#189=DIRECTION('center_axis',(0.,1.,0.));
#190=DIRECTION('ref_axis',(1.,0.,0.));
#191=DIRECTION('center_axis',(0.,-1.,0.));
#192=DIRECTION('ref_axis',(1.,0.,0.));
#193=DIRECTION('center_axis',(0.,-1.,0.));
#194=DIRECTION('ref_axis',(0.,0.,-1.));
#195=DIRECTION('center_axis',(0.,-1.,0.));
#196=DIRECTION('ref_axis',(1.,0.,0.));
#197=DIRECTION('center_axis',(0.,-1.,0.));
#198=DIRECTION('ref_axis',(0.,0.,-1.));
#199=DIRECTION('center_axis',(0.,-1.,0.));
#200=DIRECTION('ref_axis',(1.,0.,0.));
#201=DIRECTION('center_axis',(0.,-1.,0.));
#202=DIRECTION('ref_axis',(1.,0.,0.));
#203=DIRECTION('center_axis',(0.,-1.,0.));
#204=DIRECTION('ref_axis',(1.,0.,0.));
#205=DIRECTION('center_axis',(0.,-1.,0.));
#206=DIRECTION('ref_axis',(0.,0.,-1.));
#207=DIRECTION('center_axis',(0.,-1.,0.));
#208=DIRECTION('ref_axis',(1.,0.,0.));
#209=DIRECTION('center_axis',(0.,-1.,0.));
#210=DIRECTION('ref_axis',(0.,0.,-1.));
#211=CARTESIAN_POINT('',(0.,0.,0.));
#212=CARTESIAN_POINT('Origin',(85.,60.6,0.));
#213=CARTESIAN_POINT('',(85.,60.6,0.));
#214=CARTESIAN_POINT('Origin',(0.,60.6,0.));
#215=CARTESIAN_POINT('Origin',(0.,59.3,0.));
#216=CARTESIAN_POINT('',(85.,58.,0.));
#217=CARTESIAN_POINT('Origin',(0.,58.,0.));
#218=CARTESIAN_POINT('Origin',(0.,58.,0.));
#219=CARTESIAN_POINT('',(84.,57.,0.));
#220=CARTESIAN_POINT('Origin',(0.,57.,0.));
#221=CARTESIAN_POINT('Origin',(80.65,57.,0.));
#222=CARTESIAN_POINT('',(80.65,57.,0.));
#223=CARTESIAN_POINT('Origin',(0.,57.,0.));
#224=CARTESIAN_POINT('Origin',(0.,56.5,0.));
#225=CARTESIAN_POINT('',(80.15,56.5,0.));
#226=CARTESIAN_POINT('Origin',(0.,56.5,0.));
#227=CARTESIAN_POINT('Origin',(0.,31.75,0.));
#228=CARTESIAN_POINT('',(80.15,7.00000000000001,0.));
#229=CARTESIAN_POINT('Origin',(0.,7.00000000000001,0.));
#230=CARTESIAN_POINT('Origin',(0.,3.68529523872438,0.));
#231=CARTESIAN_POINT('',(78.3736550721372,0.370590477448745,0.));
#232=CARTESIAN_POINT('Origin',(0.,0.370590477448749,0.));
#233=CARTESIAN_POINT('Origin',(0.,0.500000000000007,0.));
#234=CARTESIAN_POINT('',(77.8906921589927,7.21644966006352E-15,0.));
#235=CARTESIAN_POINT('Origin',(0.,8.88178419700125E-15,0.));
#236=CARTESIAN_POINT('Origin',(75.95,0.,0.));
#237=CARTESIAN_POINT('',(75.95,0.,0.));
#238=CARTESIAN_POINT('Origin',(0.,0.,0.));
#239=CARTESIAN_POINT('Origin',(0.,28.25,0.));
#240=CARTESIAN_POINT('',(75.95,56.5,0.));
#241=CARTESIAN_POINT('Origin',(0.,56.5,0.));
#242=CARTESIAN_POINT('Origin',(0.,56.5,0.));
#243=CARTESIAN_POINT('',(75.45,57.,0.));
#244=CARTESIAN_POINT('Origin',(0.,57.,0.));
#245=CARTESIAN_POINT('Origin',(0.,57.,0.));
#246=UNCERTAINTY_MEASURE_WITH_UNIT(LENGTH_MEASURE(0.01),#250,
'DISTANCE_ACCURACY_VALUE',
'Maximum model space distance between geometric entities at asserted c
onnectivities');
#247=UNCERTAINTY_MEASURE_WITH_UNIT(LENGTH_MEASURE(1.E-6),#250,
'DISTANCE_ACCURACY_VALUE',
'Maximum model space distance between geometric entities at asserted c
onnectivities');
#248=(
GEOMETRIC_REPRESENTATION_CONTEXT(3)
GLOBAL_UNCERTAINTY_ASSIGNED_CONTEXT((#246))
GLOBAL_UNIT_ASSIGNED_CONTEXT((#250,#253,#251))
REPRESENTATION_CONTEXT('','3D')
);
#249=(
GEOMETRIC_REPRESENTATION_CONTEXT(3)
GLOBAL_UNCERTAINTY_ASSIGNED_CONTEXT((#247))
GLOBAL_UNIT_ASSIGNED_CONTEXT((#250,#253,#251))
REPRESENTATION_CONTEXT('','3D')
);
#250=(
LENGTH_UNIT()
NAMED_UNIT(*)
SI_UNIT(.MILLI.,.METRE.)
);
#251=(
NAMED_UNIT(*)
SI_UNIT($,.STERADIAN.)
SOLID_ANGLE_UNIT()
);
#252=DIMENSIONAL_EXPONENTS(0.,0.,0.,0.,0.,0.,0.);
#253=(
CONVERSION_BASED_UNIT('degree',#255)
NAMED_UNIT(#252)
PLANE_ANGLE_UNIT()
);
#254=(
NAMED_UNIT(*)
PLANE_ANGLE_UNIT()
SI_UNIT($,.RADIAN.)
);
#255=PLANE_ANGLE_MEASURE_WITH_UNIT(PLANE_ANGLE_MEASURE(0.01745329252),#254);
#256=SHAPE_DEFINITION_REPRESENTATION(#257,#258);
#257=PRODUCT_DEFINITION_SHAPE('',$,#260);
#258=SHAPE_REPRESENTATION('',(#139),#248);
#259=PRODUCT_DEFINITION_CONTEXT('part definition',#264,'design');
#260=PRODUCT_DEFINITION('177620 HTsafeM DN_OD 160',
'177620 HTsafeM DN_OD 160',#261,#259);
#261=PRODUCT_DEFINITION_FORMATION('',$,#266);
#262=PRODUCT_RELATED_PRODUCT_CATEGORY('177620 HTsafeM DN_OD 160',
'177620 HTsafeM DN_OD 160',(#266));
#263=APPLICATION_PROTOCOL_DEFINITION('international standard',
'automotive_design',2009,#264);
#264=APPLICATION_CONTEXT(
'Core Data for Automotive Mechanical Design Process');
#265=PRODUCT_CONTEXT('part definition',#264,'mechanical');
#266=PRODUCT('177620 HTsafeM DN_OD 160','177620 HTsafeM DN_OD 160',$,(#265));
#267=PRESENTATION_STYLE_ASSIGNMENT((#268));
#268=SURFACE_STYLE_USAGE(.BOTH.,#269);
#269=SURFACE_SIDE_STYLE('',(#270));
#270=SURFACE_STYLE_FILL_AREA(#271);
#271=FILL_AREA_STYLE('',(#272));
#272=FILL_AREA_STYLE_COLOUR('',#273);
#273=COLOUR_RGB('',0.749019607843137,0.749019607843137,0.749019607843137);
ENDSEC;
END-ISO-10303-21;
